Oops, an error
Loading. Please wait.

Ele Me Ama Chords

314 views 1 this week
no commentswrite comment
1 2 3 4 5
2 more votes to show rating
add to favorites
launch autoscroll
font size
0
reset
transpose
0
reset
display chords
guitar tuner
Autoscroll
slow
fast
+/-
esc
set tempo
stop
Help us to improve Ultimate-Guitar.com Take our survey!
×
Author
Ele Me ama
Livres para Adorar 

Tom: B
                
Intro: B

Riff Pré Intro:
E|-----------------------------------------|
B|---12-12-12-12-12-12-11-11-11-12-12-12---|
G|---11-11-11-11-11-11-11-11-11-11-11-11---|
D|---9--9--9--9--9--9--9--9--9--9--9--9----|(2x)
A|-----------------------------------------|
E|-----------------------------------------|

Solo Intro:                        (2x)
               E|-------------||-------------||---------------7|
               B|-4/12-11-4-7-||-4/12-11-4-7-||-4/12-11-4-7--4-|
A|-4/6-7-6-2-| 

Parte 1:
B
Ele tem ciúmes de mim
   G#m
Amor furioso, de quem sou refém
 F#                            E
Feito dependente de Sua misericórdia
  B                                G#m
Quando de repente eu não percebo as dores por causa da glória
      F#                          E
Eu vejo então a beleza em Ti e o afeto que Sentes por mim

Riff Tocada junto com a próxima estrofe:
E|-----------------------|         E|-----|
B|-----------------------|         B|-----|
G|---4--4/6--6/8--8/11---|         G|--4--|
D|-----------------------| (3x)    D|-----|
A|---2--2/4--4/6--6/9----|         A|--2--|
E|-----------------------|         E|-----|

E|--------------------|            E|-------|
B|---12-11/4-4--4/7---|            B|---12--|
G|--------------------|            G|-------|
D|---9--8/1--1--1/4---| (3x)       D|---9---|
A|--------------------|            A|-------|
E|--------------------|            E|-------|

Deus
               G#m
Me ama tanto assim
            F#
Como Ele me ama
            E
Me ama tanto assim




Refrão: (tocar solo intro junto 1x)
       B
Ele me ama, tanto
   G#m
Me ama, tanto
   F#
Me ama, tanto
     E
Ele Ama

       B
Ele me ama, tanto
   G#m
Me ama, tanto
   F#
Me ama, tanto
     E
Ele Ama

Solo 1:
E|----------------------------------------------------------|
B|-----------------10/12-11-11\7-7-7/12-12-12/16~-16b-12~---|
G|---8-8/11-11/13-------------------------------------------|

Parte 2:
  B
És minha herança e sou Tua porção
 G#m
Atraído pela redenção no olhar
      F#                                  E
Se a graça é como um oceano, estou me afogando
    B
Os céus e a terra se encontram
            G#m
E o meu coração é tomado em grande furor
         F#
E eu não perco meu tempo em lamentos
               E
Quando eu me lembro que


Refrão: (tocar solo intro junto 2x)
       B
Ele me ama, tanto
   G#m
Me ama, tanto
   F#
Me ama, tanto
     E
Ele Ama

       B
Ele me ama, tanto
   G#m
Me ama, tanto
   F#
Me ama, tanto
     E
Ele Ama

Solo 2:
E|----------------------------------------------------|
B|----------------11/14~-14/16-16~---9/12-11-7/9-7~---|
G|---8-8/11-11~---------------------------------------|
D|----------------------------------------------------|
A|----------------------------------------------------|
E|----------------------------------------------------|

Solo 3:
E|----------------------------|
B|---------------7------------|
G|---4/6-8---6/8-----2/4-6----|
D|----------------------------|
A|----------------------------|
E|----------------------------|

Refrão:
       B
Ele me ama, tanto
   G#m
Me ama, tanto
   F#
Me ama, tanto
     E
Ele Ama

Uô ô ô ô  ( B  G#m  F#  E ) Solo intro
Suggest correction
Give kudos to tab author, rate the tab!
1 2 3 4 5
comments
print report bad tab
guest
You may want to rate the tab now too:
select rating
Wanna post a correction for this tab? Suggest correction