Oops, an error
Loading. Please wait.

Mountain Man tab

1,132 views 21 this week
3 commentsread comments
1 2 3 4 5
x 4
add to favorites
×
Save as Personal and add changes to this tab that will be seen only by you. Learn more ›
×
You can save this tab as Personal to edit and correct it or add notes. All changes will be seen only by you. Learn more »
launch autoscroll
font size
0
reset
how to read this tab
guitar tuner
edit
Autoscroll
slow
fast
+/-
esc
set tempo
stop
Tuning is: D A D Gb B e 
(She uses a capo on the first fret, but I didn't take it into account on the tab)

[Intro]
e|-----------------------------------------------------------|
B|-----------------------------------------------------------|
G|-----0-------0-----0-------0-----0-------0-----0---------0-|
D|---0-------0-----0-------0-----0-------0---0h2---2p0-------|    (x4)
A|-------0h2-----------0h2-----------0h2---------------0h2---|
E|-0-------------0-------------0-----------------------------|

e|--------------------------------------------------------|
B|--------------------------------------------------------|
G|-----0-------0-------0-----0-------0-----0------0-----0-|
D|---0-------0-------0-----0-------0-----0------0-----0---|
A|-------0h4-----4h5-----4-----4h5-----4-----\2-----0-----|
E|-5------------------------------------------------------|

e|-----------------------------------------------------------|
B|-----------------------------------------------------------|
G|-----0-------0-----0-------0-----0-------0-----0---------0-|
D|---0-------0-----0-------0-----0-------0---0h2---2p0-------|
A|-------0h2-----------0h2-----------0h2---------------0h2---|
E|-0-------------0-------------0-----------------------------|

e|------------------------------------------------------|
B|------------------------------------------------------|
G|-----0-----0------0-----0-----0-------0-------0-----0-|
D|---0-----0------0-----0-----0-------0-------0---------|
A|-------7-----/9-----7\----------0h4-----4h5-----4\2---|
E|-7------------------------5---------------------------|

e|-----------------------------------------------------------|
B|-----------------------------------------------------------|
G|-----0-------0-----0-------0-----0-------0-----0---------0-|
D|---0-------0-----0-------0-----0-------0---0h2---2p0-------|   (x2)
A|-------0h2-----------0h2-----------0h2---------------0h2---|
E|-0-------------0-------------0-----------------------------|

[Verse 1] 
    When I am old, old and grey
e|---------------------------------------------------------|
B|-2-------2-----2-------2-----2-------2-----2-------2-----|
G|-----0-------0-----0-------0-----0-------0-----0-------0-|
D|---2-------2-----2-------2-----2-------2-----2-------2---|
A|-0-----0-------0-----0-------0-----0-------0-----0-------|
E|---------------------------------------------------------|

e|---------------------------------------------------------|
B|---------------------------------------------------------|
G|-----0-------0-----0-------0-----0-------0-----0-------0-|
D|---0-------0-----0-------0-----0-------0-----0-------0---|   
A|-------0h2-----------0h2-----------0h2-----------0h2-----|
E|-0-------------0-------------0-------------0-------------|

   Two steps closer to my grave
e|---------------------------------------------------------|
B|-2-------2-----2-------2-----2-------2----/3------\2-----|
G|-----0-------0-----0-------0-----0-------0-----0-------0-|
D|---2-------2-----2-------2-----2-------2----/4-------2---|
A|-0-----0-------0-----0-------0-----0-------0-----0-------|
E|---------------------------------------------------------|

e|---------------------------------------------------------|
B|---------------------------------------------------------|
G|-----0-------0-----0-------0-----0-------0-----0-------0-|
D|---0-------0-----0-------0-----0-------0-----0-------0---|   
A|-------0h2-----------0h2-----------0h2-----------0h2-----|
E|-0-------------0-------------0-------------0-------------|

   Whispering pines and bitter nights
e|---------------------------------------------------------|
B|-5-------5-----5-------5-----7-------5-----5-------5-----|
G|-----5-------5-----5-------5-----5-------5-----5-------5-|
D|---0-------0-----0-------0-----0-------0-----0-------0---|
A|---------------------------------------------------------|
E|-5-----5-------5-----5-------5-----5-------5-----5-------|

   You'll be there to hold on to me tight
e|---------------------------------------------------------|
B|-5-------5-----5-------5-----7-------5-----5-------5-----|
G|-----5-------5-----5-------5-----5-------5-----5-------5-|
D|---0-------0-----0-------0-----0-------0-----0-------0---|
A|---------------------------------------------------------|
E|-5-----5-------5-----5-------5-----5-------5-----5-------|

e|-----------------------------------------------------------|
B|-----------------------------------------------------------|
G|-----0-------0-----0-------0-----0-------0-----0---------0-|
D|---0-------0-----0-------0-----0-------0---0h2---2p0-------|  (x2)
A|-------0h2-----------0h2-----------0h2---------------0h2---|
E|-0-------------0-------------0-----------------------------|

   Through the forest misty mountain 
e|---------------------------------------------------------|
B|-5-------5-----5-------5-----7-------5-----5-------5-----|
G|-----5-------5-----5-------5-----5-------5-----5-------5-|
D|---0-------0-----0-------0-----0-------0-----0-------0---|
A|---------------------------------------------------------|
E|-5-----5-------5-----5-------5-----5-------5-----5-------|

      and you and I
e|---------------------------------------------------------|
B|-5-------5-----5-------5-----7-------5-----5-------5-----|
G|-----5-------5-----5-------5-----5-------5-----5-------5-|
D|---0-------0-----0-------0-----0-------0-----0-------0---|
A|---------------------------------------------------------|
E|-5-----5-------5-----5-------5-----5-------5-----5-------|

e|-----------------------------------------------------------|
B|-----------------------------------------------------------|
G|-----0-------0-----0-------0-----0-------0-----0---------0-|
D|---0-------0-----0-------0-----0-------0---0h2---2p0-------|  (x2)
A|-------0h2-----------0h2-----------0h2---------------0h2---|
E|-0-------------0-------------0-----------------------------|

[Chorus 1]
   I'll hold on to your leathered hands                    
e|---------------------------------------------------------|
B|---------------------------------------------------------|
G|-1-------1-----1-------1-----1-------1-----1-------1-----|
D|-----2-------2-----2-------2-----2-------2-----2-------2-| 
A|---2-------2-----2-------2-----2-------2-----2-------2---|
E|-2-----2-------2-----2-------2-----2-------2-----2-------|

   Just me and my mountain
e|---------------------------------------------------------|
B|---------------------------------------------------------|
G|-0-------0-----0-------0-----0-------0-----0-------0-----|
D|-----7-------7-----7-------7-----7-------7-----7-------7-| 
A|---7-------7-----7-------7-----7-------7-----7-------7---|
E|-7-----7-------7-----7-------7-----7-------7-----7-------|

   I'll hold on to your leathered hands                    
e|---------------------------------------------------------|
B|---------------------------------------------------------|
G|-1-------1-----1-------1-----1-------1-----1-------1-----|
D|-----2-------2-----2-------2-----2-------2-----2-------2-| 
A|---2-------2-----2-------2-----2-------2-----2-------2---|
E|-2-----2-------2-----2-------2-----2-------2-----2-------|

   Just me and my mountain              man
e|---------------------------------------------------------|
B|---------------------------------------------------------|
G|-0-------0-----0-------0-----0---------------------------|
D|-----7-------7-----7-------7-----------------------------| 
A|---7-------7-----7-------7-------------------------------|
E|-7-----7-------7-----7-------7---------------------------|

e|-----------------------------------------------------------|
B|-----------------------------------------------------------|
G|-----0-------0-----0-------0-----0-------0-----0---------0-|
D|---0-------0-----0-------0-----0-------0---0h2---2p0-------|  (x2)
A|-------0h2-----------0h2-----------0h2---------------0h2---|
E|-0-------------0-------------0-----------------------------|

[Verse 2]
    Splintered wood outside our cabin
e|---------------------------------------------------------|
B|-2-------2-----2-------2-----2-------2----/3------\2-----|
G|-----0-------0-----0-------0-----0-------0-----0-------0-|
D|---2-------2-----2-------2-----2-------2----/4-------2---|
A|-0-----0-------0-----0-------0-----0-------0-----0-------|
E|---------------------------------------------------------|

e|---------------------------------------------------------|
B|---------------------------------------------------------|
G|-----0-------0-----0-------0-----0-------0-----0-------0-|
D|---0-------0-----0-------0-----0-------0-----0-------0---|   
A|-------0h2-----------0h2-----------0h2-----------0h2-----|
E|-0-------------0-------------0-------------0-------------|

   Curled up under a wool blanket
e|---------------------------------------------------------|
B|-2-------2-----2-------2-----2-------2----/3------\2-----|
G|-----0-------0-----0-------0-----0-------0-----0-------0-|
D|---2-------2-----2-------2-----2-------2----/4-------2---|
A|-0-----0-------0-----0-------0-----0-------0-----0-------|
E|---------------------------------------------------------|

e|---------------------------------------------------------|
B|---------------------------------------------------------|
G|-----0-------0-----0-------0-----0-------0-----0-------0-|
D|---0-------0-----0-------0-----0-------0-----0-------0---|   
A|-------0h2-----------0h2-----------0h2-----------0h2-----|
E|-0-------------0-------------0-------------0-------------|

   The windows ??? the curtains ???
e|---------------------------------------------------------|
B|-5-------5-----5-------5-----7-------7-----5-------5-----|
G|-----5-------5-----5-------5-----5-------5-----5-------5-|
D|---0-------0-----0-------0-----0-------0-----0-------0---|
A|---------------------------------------------------------|
E|-5-----5-------5-----5-------5-----5-------5-----5-------|

   Listening to the howling wind sing songs
e|---------------------------------------------------------|
B|-5-------5-----5-------5-----7-------7-----5-------5-----|
G|-----5-------5-----5-------5-----5-------5-----5-------5-|
D|---0-------0-----0-------0-----0-------0-----0-------0---|
A|---------------------------------------------------------|
E|-5-----5-------5-----5-------5-----5-------5-----5-------|

e|-----------------------------------------------------------|
B|-----------------------------------------------------------|
G|-----0-------0-----0-------0-----0-------0-----0---------0-|
D|---0-------0-----0-------0-----0-------0---0h2---2p0-------|  (x2)
A|-------0h2-----------0h2-----------0h2---------------0h2---|
E|-0-------------0-------------0-----------------------------|

   You hold me closer tenderly
e|---------------------------------------------------------|
B|-5-------5-----5-------5-----7-------7-----5-------5-----|
G|-----5-------5-----5-------5-----5-------5-----5-------5-|
D|---0-------0-----0-------0-----0-------0-----0-------0---|
A|---------------------------------------------------------|
E|-5-----5-------5-----5-------5-----5-------5-----5-------|

    Just like your secret ??? for you and me
e|---------------------------------------------------------|
B|-5-------5-----5-------5-----7-------7-----5-------5-----|
G|-----5-------5-----5-------5-----5-------5-----5-------5-|
D|---0-------0-----0-------0-----0-------0-----0-------0---|
A|---------------------------------------------------------|
E|-5-----5-------5-----5-------5-----5-------5-----5-------|

e|-----------------------------------------------------------|
B|-----------------------------------------------------------|
G|-----0-------0-----0-------0-----0-------0-----0---------0-|
D|---0-------0-----0-------0-----0-------0---0h2---2p0-------|  (x2)
A|-------0h2-----------0h2-----------0h2---------------0h2---|
E|-0-------------0-------------0-----------------------------|

[Chorus 1]
   I'll hold on to your leathered hands                    
e|---------------------------------------------------------| 
B|---------------------------------------------------------|  
G|-1-------1-----1-------1-----1-------1-----1-------1-----|   
D|-----2-------2-----2-------2-----2-------2-----2-------2-|    
A|---2-------2-----2-------2-----2-------2-----2-------2---|     
E|-2-----2-------2-----2-------2-----2-------2-----2-------|      
                                                                      (x3)
   Just me and my mountain
e|---------------------------------------------------------|      
B|---------------------------------------------------------|     
G|-0-------0-----0-------0-----0-------0-----0-------0-----|    
D|-----7-------7-----7-------7-----7-------7-----7-------7-|  
A|---7-------7-----7-------7-----7-------7-----7-------7---|  
E|-7-----7-------7-----7-------7-----7-------7-----7-------| 

   I'll hold on to your leathered hands                    
e|---------------------------------------------------------|
B|---------------------------------------------------------|
G|-1-------1-----1-------1-----1-------1-----1-------1-----|
D|-----2-------2-----2-------2-----2-------2-----2-------2-| 
A|---2-------2-----2-------2-----2-------2-----2-------2---|
E|-2-----2-------2-----2-------2-----2-------2-----2-------|

   Just me and my mountain              man
e|---------------------------------------------------------|
B|---------------------------------------------------------|
G|-0-------0-----0-------0-----0---------------------------|
D|-----7-------7-----7-------7-----------------------------| 
A|---7-------7-----7-------7-------------------------------|
E|-7-----7-------7-----7-------7---------------------------|
  
e|-----------------------------------------------------------|
B|-----------------------------------------------------------|
G|-----0-------0-----0-------0-----0-------0-----0---------0-|
D|---0-------0-----0-------0-----0-------0---0h2---2p0-------|  (x2)
A|-------0h2-----------0h2-----------0h2---------------0h2---|
E|-0-------------0-------------0-----------------------------|

[Bridge]
e|--------------------------------------------------------|
B|--------------------------------------------------------|
G|-----0-------0-------0-----0-------0-----0------0-----0-|
D|---0-------0-------0-----0-------0-----0------0-----0---|
A|-------0h4-----4h5-----4-----4h5-----4-----\2-----0-----|
E|-5------------------------------------------------------|

e|-----------------------------------------------------------|
B|-----------------------------------------------------------|
G|-----0-------0-----0-------0-----0-------0-----0---------0-|
D|---0-------0-----0-------0-----0-------0---0h2---2p0-------|  
A|-------0h2-----------0h2-----------0h2---------------0h2---|
E|-0-------------0-------------0-----------------------------|

e|------------------------------------------------------|       
B|------------------------------------------------------|        
G|-----0-----0-----0-----0-----0--------0-------0-----0-|         
D|---0-----0-----0-----0-----0--------0-------0---------|          
A|-------7-----9-----7\----------0h4------4h5-----4\2---|           
E|-7-----------------------5----------------------------|            
                                                                      (x3)
e|------------------------------------------------------------|      
B|------------------------------------------------------------|     
G|------0-------0-----0-------0-----0-------0-----0---------0-|    
D|----0-------0-----0-------0-----0-------0---0h2---2p0-------|   
A|-------0h2------------0h2-----------0h2---------------0h2---|  
E|-0--------------0-------------0-----------------------------| 

[Outro]
e|--------------------------------------------------------------------------------|
B|--------------------------------------------------------------------------------|
G|-(/12)-12---------10-------8---------7-------8---------7-------5---------3------|
D|--------------0---------0-------0---------0-------0---------0--------0--------0-|
A|-(/12)----12\10------10\9-----9\7-------7-------9\7-------7\5------5\4------4p0-|
E|-------0--------0----------0-------0---------0-------0---------0-------0--------|

e|----------------------------------------------------------|
B|----------------------------------------------------------|
G|-0-------1-----0-------1-----0-------1-----0-------1------|
D|-----0-------0-----0-------0-----0-------0-----0--------0-|
A|---0-------2-----0-------2-----0-------2-----0-------2----|
E|-0-----0-------0-----0-------0-----0-------0-----0--------|


************************************

| h  Hammer-on
| p  Pull-off
| \  Slide down
| /  Slide up

************************************
Suggest correction
Creating personal tab
Creating personal tab
You can edit any tab online and save it as your Personal.

You can edit, replace or remove any tab part or add personal notes – all changes will be seen only by you.

Personal tabs can be accessed anytime from any device, even offline.
Learn more »
comments
print report bad tab
3 comments total.
+1 reply
gep1290 60 Dec 14, 2016 02:28 PM

Spot on! Thanks for spending so much time on this!

+1 reply
lukeparker88 10 Jan 17, 2017 06:37 PM

Massive thanks, great fun to learn!

guest
You may want to rate the tab now too:
select rating
Wanna post a correction for this tab? Suggest correction