Oops, an error
Loading. Please wait.

Why Cant I Tab

version 1
version 1

Whole song

8,619 views 6 this week
2 commentsread comments
1 2 3 4 5
accurate
x 6
add to favorites
launch autoscroll
font size
0
reset
how to read this tab
guitar tuner
Tab Pro tools
  • play this tab
  • loop segment
  • change instrument
  • show fretboard
  • metronome
×
Best way to learn
"Why Cant I"
Autoscroll
slow
fast
+/-
esc
set tempo
stop
I'm learning this song by request.  This song is relatively simple.
Listen to the song for timing and strumming patterns.

Why Can't I
As performed on "Liz Phair"
Written by Liz Phair

Standard tuning

Intro  (Keyboard arranged for guitar, x3)
You can use a pick here, but you'd have to be kind of quick, so I'd recommend finger-picking
e[----------14-------12-------11---------------------------
B[----12-------12-------12-------12------------------------
G[-11----11-------11-------11-------11---------------------
D[---------------------------------------------------------
A[---------------------------------------------------------
E[---------------------------------------------------------

End intro on this
e[-9-------11--------9------------------------------------
B[---12-------12-------12------12-------------------------
G[------11-------11-------11------------------------------
D[--------------------------------------------------------
A[--------------------------------------------------------
E[--------------------------------------------------------

Verse (x2)
An acoustic guitar the verse
e[---------------------------------------------------------
B[---------------------------------------------------------
G[-4-------------------------------------------------------
D[-4--------4--------6--------2----------------------------
A[-2--------4--------6--------2----------------------------
E[----------2--------4--------0----------------------------

Pre-chorus
Just strum this a bunch of times
e[---------------------------------------------------------
B[---------------------------------------------------------
G[---------------------------------------------------------
D[-2--------------4-----------------------------------------
A[-2--------------4-----------------------------------------
E[-0--------------2-----------------------------------------

Chorus (x2)
Distorted electric                     Only play this after 1st chorus
e[------------------------------------]---------------------
B[------------------------------------]---------------------
G[------------9----------4------------]---------------------
D[-6----------9----------4----------4-]-2--------------4----
A[-6----------7----------2----------4-]-2--------------4----
E[-4----------0---------------------2-]-0--------------2----

Play whole intro

Verse

Pre-chorus

Chorus

Bridge (x2)              End Bridge on this
e[---------------------]----------------------------------
B[---------------------]----------------------------------
G[------------8--7-----]----------------------------------
D[-6---8-9----8--7-----]-2------------2-------------------
A[-6---8-9----6--9-----]-2------------2-------------------
E[-4---6-7-------------]-0------------0-------------------

Play the first half of the chorus clean, then play the whole thing one more time
with distortion

Outro                            End on this     Strum once
e[------------------------------]---------------------------
B[------------------------------]---------------------------
G[-4----------------------------]-4-------------------------
D[-4--------2--------6--------2-]-4-------------------------
A[-2--------2--------6--------2-]-2-------------------------
E[----------0--------4--------0-]---------------------------

That's it

Song Structure
Intro (x3)
End intro
Verse (x2)
Pre-chorus
Chorus (x2)
Intro (x3)
Verse (x2)
Pre-chorus
Chorus (x2)
Bridge (x2)
End bridge
Clean chorus
Just plain chorus (x2)
Outro
End


Enjoy.
comments
print report bad tab
2 comments total.
0 reply
LiL_rocker808 wrote on February 2 2004, 12:00 am

u suck....isuck...we all suck

-2 reply
streetbrat2e2 wrote on September 18 2006, 04:47 am

is there a point to this comment?

I want to post or [tab]
guest
You may want to rate the tab now too:
select rating
Please do not post tabs as comments. Select "correction" instead!