Oops, an error
Loading. Please wait.

Party Rock Anthem Bass Tab

version 1
version 1

Whole song

Interactive

6,311 views 9 this week
1 commentread comment
1 2 3 4 5
worth learning
x 4
add to favorites
launch autoscroll
font size
0
reset
guitar tuner
Autoscroll
slow
fast
+/-
esc
set tempo
stop
Help us to improve Ultimate-Guitar.com Take our survey!
×
Author
Difficulty
novice
Party Rock Anthem by LMFAO
Bass tab by Alex Acero
Tuning: EADG

Here’s the main riff of the song. I put up only the intro/chorus as these notes are 
practically the only ones that are played during the song: F, D# and C# (with rhythm variations).

G|----------------------------------|
D|----------------------------------|
A|--88-8-8-8-66-4-4-4---------------|
E|----------------------------------|

Rate/comment and, most importantly, enjoy!
Alex
Suggest correction new What's this?
You can suggest a correction to this tab. Community and Mods will review your correction and vote to approve or reject it.
comments
print report bad tab
1 comment total.
0 reply
klogd 11 wrote on October 20 2013, 09:45 am

First 15 seconds of song has A8 played over and over. Then the riff above for a long time.

Then:
G|-----10----10----10----10---|
D|----------------------------|
A|--8-----8-----8-----8-------|
E|----------------------------|

G|-----10----10----10---------|-----8-----6-----6-----6----|
D|----------------------------|----------------------------|
A|--8-----8-----8-----8--8----|--6-----6-----4-----4-------|
E|----------------------------|----------------------------|

guest
You may want to rate the tab now too:
select rating
Please do not post tabs as comments. Select "correction" instead!