Oops, an error
Loading. Please wait.

Boris tab

by Lo-Fang
58 views 3 this week
no commentswrite comment
1 2 3 4 5
3 more votes to show rating
add to favorites
×
Save as Personal and add changes to this tab that will be seen only by you. Learn more ›
×
You can save this tab as Personal to edit and correct it or add notes. All changes will be seen only by you. Learn more »
launch autoscroll
font size
0
reset
how to read this tab
guitar tuner
edit
Autoscroll
slow
fast
+/-
esc
set tempo
stop
About this tab version
Shows picking pattern as well as chords. Was this info helpful? Yes No
[Intro]
           Am                      C         Em
e|---------------------------------------------------------------------------|
B|---------------------------------------------------------------------------|
G|---------------------------------------------------------------------------|
D|------2-----2-----2-----2--------2-----2------2-----2----------------------|
A|---0-----0-----0-----0-------3------3------2-----2-------------------------|
E|---------------------------------------------------------------------------|

       Am                  Am7/G         Am13/F#
e|---------------------------------------------------------------------------|
B|---------------------------------------------------------------------------|
G|---------------------------------------------------------------------------|
D|------2-----2-----2-----2-----2-----2-----2------2-------------------------|
A|---0-----0-----0-----0-----------------------------------------------------|
E|---------------------------3-----3-----2-----2-----------------------------|

[Verse]
(repeat the intro fingering for all verses)
           Am                      C         Em
e|---------------------------------------------------------------------------|
B|---------------------------------------------------------------------------|
G|---------------------------------------------------------------------------|
D|------2-----2-----2-----2--------2-----2------2-----2----------------------|
A|---0-----0-----0-----0-------3------3------2-----2-------------------------|
E|---------------------------------------------------------------------------|

       Am                  Am7/G         Am13/F#
e|---------------------------------------------------------------------------|
B|---------------------------------------------------------------------------|
G|---------------------------------------------------------------------------|
D|------2-----2-----2-----2-----2-----2-----2------2-------------------------|
A|---0-----0-----0-----0-----------------------------------------------------|
E|---------------------------3-----3-----2-----2-----------------------------|

I said
Am
Baby, come up to my office
                 C
You played at my party
               Em
I owe you some money
           Am
You owe me your lips
          
I'm gonna give tips
             Am7/G              Am13/F#
I heard your boyfriend's out of town

Am
Baby, aren't you hungry?
                 C
I could give you codeine
             Em
Or could get my car keys
           Am
Oh, what a cute dress

Right now it's useless
             Am7/G              Am13/F#
I heard your boyfriend's out of town

[Chorus]
play single strum chords for chorus
   Am - G - C             G        Am
And yo--------u should get out of town too
      Am - G - C            G         Am
Yeah, yo--------u should get out of town too

[Verse 2]
           Am                      C         Em
e|---------------------------------------------------------------------------|
B|---------------------------------------------------------------------------|
G|---------------------------------------------------------------------------|
D|------2-----2-----2-----2--------2-----2------2-----2----------------------|
A|---0-----0-----0-----0-------3------3------2-----2-------------------------|
E|---------------------------------------------------------------------------|

       Am                  Am7/G         Am13/F#
e|---------------------------------------------------------------------------|
B|---------------------------------------------------------------------------|
G|---------------------------------------------------------------------------|
D|------2-----2-----2-----2-----2-----2-----2------2-------------------------|
A|---0-----0-----0-----0-----------------------------------------------------|
E|---------------------------3-----3-----2-----2-----------------------------|

I said
Am
Baby, I know that you want me
          C
You won't regret this
            Em
Really, I'm serious
              Am
We could just have fun

We're only young ones
            Am7/G              Am13/F#
I know your boyfriend's out of town
Am
Baby, where are you going?
                C
Don't be such a diva
                   Em
You know you can't leave now
           Am
Oh, what a cute dress

Oh, what a wet mess
            Am7/G                 Am13/F#
I know your boyfriend's is out of town
Am13/F#

[Chorus]
(play single strum chords for chorus)
   Am - G - C             G        Am
And yo--------u should get out of town too
      Am - G - C            G         Am
Yeah, yo--------u should get out of town too

   Am - G - C             G        Am
And yo--------u should get out of town too
      Am - G - C            G         Am
Yeah, yo--------u should get out of town too

[Outro]
(same as intro) [fade]
           Am                      C         Em
e|---------------------------------------------------------------------------|
B|---------------------------------------------------------------------------|
G|---------------------------------------------------------------------------|
D|------2-----2-----2-----2--------2-----2------2-----2----------------------|
A|---0-----0-----0-----0-------3------3------2-----2-------------------------|
E|---------------------------------------------------------------------------|

       Am                  Am7/G         Am13/F#
e|---------------------------------------------------------------------------|
B|---------------------------------------------------------------------------|
G|---------------------------------------------------------------------------|
D|------2-----2-----2-----2-----2-----2-----2------2-------------------------|
A|---0-----0-----0-----0-----------------------------------------------------|
E|---------------------------3-----3-----2-----2-----------------------------|
Suggest correction
Creating personal tab
Creating personal tab
You can edit any tab online and save it as your Personal.

You can edit, replace or remove any tab part or add personal notes – all changes will be seen only by you.

Personal tabs can be accessed anytime from any device, even offline.
Learn more »
Give kudos to tab author, rate the tab!
1 2 3 4 5
comments
print report bad tab
guest
You may want to rate the tab now too:
select rating
Wanna post a correction for this tab? Suggest correction