Oops, an error
Loading. Please wait.

Bound For The Floor tab

version 3
version 3

Interactive

by Local H
4,659 views 1 this week
2 commentsread comments
1 2 3 4 5
x 4
add to favorites
×
Save as Personal and add changes to this tab that will be seen only by you. Learn more ›
×
You can save this tab as Personal to edit and correct it or add notes. All changes will be seen only by you. Learn more »
launch autoscroll
font size
0
reset
how to read this tab
guitar tuner
edit
Autoscroll
slow
fast
+/-
esc
set tempo
stop
Author
Difficulty
-------------------------------------------------------------------------------
                             Bound for the Floor - Local H
-------------------------------------------------------------------------------
Tabbed by:Frankiestrat24
Email:frankiecorcoran@gmail.com

Tuning:1/2 step down

This chord progression is played with an almost choppy style palm mute. To get  it right 
listen to the song and youll know what i mean.

 Progression A:
e|-x--x---x-x-x---x--x-x--x-x-x-x---x--x---x-x-x---0--0-0--0-0-0-x-|
B|-5--5---5-5-x---5--5-5--5-5-5-x---5--5---5-5-x---5--5-5--5-5-5-x-|
G|-4--4---4-4-x---4--4-4--4-4-4-x---4--4---4-4-x---4--4-4--4-4-4-x-|
D|-2--2---2-2-x---2--2-2--2-2-2-x---2--2---2-2-x---0--0-0--0-0-0-x-|
A|-0--0---0-0-x---3--3-3--3-3-3-x---x--x---x-x-x---0--0-0--0-0-0-x-|
E|-x--x---x-x-x---x--x-x--x-x-x-x---3--3---3-3-x---0--0-0--0-0-0-x-|

 Progression B:
e|------------------------------------------------------|
B|-0--0-------------------------------------------------|
G|-2--2-------/5-5--5--5555---------------/7-7--7--7777-|
D|-2--2-------/5-5--5--5555----5--5-------/7-7--7--7777-|
A|------------/3-3--3--3333----5--5-------/5-5--5--5555-|
E|-----------------------------3--3---------------------|

Solo:
e|-----------------------------|  repeat a million times
B|-----------------------------|  thru the next verse and
G|--4-4-4-2-4-2-4-4-4-4-2-4----|  chorus.
D|-----------------------------|
A|-----------------------------|
E|-----------------------------|


     For the order of the parts just listen to the song, its pretty easy to get and the 
has many tracks layed over so just pick the ones that you want to do.  BTW, the other 
are wrong on the last chord of progression A.  It sounds so much better this way.


| /  slide up
| \  slide down
| h  hammer-on
| p  pull-off
| ~  vibrato
| +  harmonic
| x  Mute note
===============================================================================

            
            
Suggest correction
Creating personal tab
Creating personal tab
You can edit any tab online and save it as your Personal.

You can edit, replace or remove any tab part or add personal notes – all changes will be seen only by you.

Personal tabs can be accessed anytime from any device, even offline.
Learn more »
comments
print report bad tab
2 comments total.
0 reply
titan vig 10 Oct 15, 2007 09:57 PM

u will get a really good idea of how he palm mutes if u go on you tube and check out the old live version

0 reply
sabata777 77 Aug 13, 2008 09:46 AM

Good job on the intro and verse, brother. The solo's missing stuff though

guest
You may want to rate the tab now too:
select rating
Wanna post a correction for this tab? Suggest correction