Oops, an error
Loading. Please wait.

Freeze-Dried Flies Tab

28 views 1 this week
no commentswrite comment
1 2 3 4 5
3 more votes to show rating
add to favorites
launch autoscroll
font size
0
reset
how to read this tab
guitar tuner
Autoscroll
slow
fast
+/-
esc
set tempo
stop
Help us to improve Ultimate-Guitar.com Take our survey!
×
Author
Difficulty
Tuning
novice
D# G# C# F# A# D#
About this tab version
First whole version on this site. Was this info helpful? Yes No
Tune Half step down (Eb‐Ab‐Db‐Gb‐Bb‐Eb)

[Intro]
eb|-----------------0-0-0-0-0---0-0-------|
Bb|-----------------0-0-0-0-0---0-0-------|
Gb|-----------------0-0-0-0-0---0-0-------|
Db|-----------------2-2-2-2-2---0-0-------|(x4)
Ab|----0-1-0--------2-2-2-2-2---0-0-------|
Eb|--3-------3-1-0--0-0-0-0-0---3-3-------|

[Verse]
Abusive excuses are all I have to hold...
eb|-----------------|
Bb|-----------------|
Gb|--3-3------------|
Db|--3-3----2-2-2-2-|
Ab|--1-1----2-2-2-2-|(x16)
Eb|---------0-0-0-0-|

[Pre-Chorus]
The slow slide down...
eb|-----------------------------------0-0--0-0-0-0--0-0--0-0-0-0--|
Bb|-----------------------------------0-0--0-0-0-0--0-0--0-0-0-0--|
Gb|--3-3-3-3-3-3-3-3-3-3-3-3-3-3-3-3--2-2--2-2-2-2--2-2--2-2-2-2--|
Db|--3-3-3-3-3-3-3-3-3-3-3-3-3-3-3-3--2-2--2-2-2-2--2-2--2-2-2-2--|
Ab|--1-1-1-1-1-1-1-1-1-1-1-1-1-1-1-1--0-0--0-0-0-0--0-0--0-0-0-0--|
Eb|---------------------------------------------------------------|
PM********************************

eb|-----------------------------------0-0--0-0-0-0--0-0--|
Bb|-----------------------------------0-0--0-0-0-0--0-0--|
Gb|--3-3-3-3-3-3-3-3-3-3-3-3-3-3-3-3--2-2--2-2-2-2--0-0--|
Db|--3-3-3-3-3-3-3-3-3-3-3-3-3-3-3-3--2-2--2-2-2-2--0-0--|
Ab|--1-1-1-1-1-1-1-1-1-1-1-1-1-1-1-1--0-0--0-0-0-0--0-0--|
Eb|-------------------------------------------------3-3--|
PM********************************

[Chorus]
It's in everything we do...
eb|-----------------0-0-0-0-0---0--------|
Bb|-----------------0-0-0-0-0---0--------|
Gb|-----------------0-0-0-0-0---0--------|
Db|-----------------2-2-2-2-2---0--------|(x1)
Ab|----0-1-0--------2-2-2-2-2---0--------|
Eb|--3-------3-1-0--0-0-0-0-0---3--------|

[Verse]
Destructive impulses and cowardice and lies...
eb|---------------0-|
Bb|---------------0-|
Gb|--3-3----------0-|
Db|--3-3----2-2-2-2-|
Ab|--1-1----2-2-2-2-|(x16)
Eb|---------0-0-0-0-|

[Pre-Chorus]
The slow slide down...
eb|-----------------------------------0-0--0-0-0-0--0-0--0-0-0-0--|
Bb|-----------------------------------0-0--0-0-0-0--0-0--0-0-0-0--|
Gb|--3-3-3-3-3-3-3-3-3-3-3-3-3-3-3-3--2-2--2-2-2-2--2-2--2-2-2-2--|
Db|--3-3-3-3-3-3-3-3-3-3-3-3-3-3-3-3--2-2--2-2-2-2--2-2--2-2-2-2--|
Ab|--1-1-1-1-1-1-1-1-1-1-1-1-1-1-1-1--0-0--0-0-0-0--0-0--0-0-0-0--|
Eb|---------------------------------------------------------------|
PM********************************

eb|-----------------------------------0-0--0-0-0-0--0-0--|
Bb|-----------------------------------0-0--0-0-0-0--0-0--|
Gb|--3-3-3-3-3-3-3-3-3-3-3-3-3-3-3-3--2-2--2-2-2-2--0-0--|
Db|--3-3-3-3-3-3-3-3-3-3-3-3-3-3-3-3--2-2--2-2-2-2--0-0--|
Ab|--1-1-1-1-1-1-1-1-1-1-1-1-1-1-1-1--0-0--0-0-0-0--0-0--|
Eb|-------------------------------------------------3-3--|
PM********************************
[Chorus]
It's in everything we do...
eb|-----------------0-0-0-0-0---0--------|
Bb|-----------------0-0-0-0-0---0--------|
Gb|-----------------0-0-0-0-0---0--------|
Db|-----------------2-2-2-2-2---0--------|(x4)
Ab|----0-1-0--------2-2-2-2-2---0--------|
Eb|--3-------3-1-0--0-0-0-0-0---3--------|

[Bridge]
One for love and one for sex...
eb|---------------0-|
Bb|---------------0-|
Gb|--3-3----------0-|
Db|--3-3----2-2-2-2-|
Ab|--1-1----2-2-2-2-|
Eb|---------0-0-0-0-|

[Pre-Chorus]
The slow slide down...
eb|-----------------------------------0-0--0-0-0-0--0-0--0-0-0-0--|
Bb|-----------------------------------0-0--0-0-0-0--0-0--0-0-0-0--|
Gb|--3-3-3-3-3-3-3-3-3-3-3-3-3-3-3-3--2-2--2-2-2-2--2-2--2-2-2-2--|
Db|--3-3-3-3-3-3-3-3-3-3-3-3-3-3-3-3--2-2--2-2-2-2--2-2--2-2-2-2--|
Ab|--1-1-1-1-1-1-1-1-1-1-1-1-1-1-1-1--0-0--0-0-0-0--0-0--0-0-0-0--|
Eb|---------------------------------------------------------------|
PM********************************

eb|-----------------------------------0-0--0-0-0-0--0-0--|
Bb|-----------------------------------0-0--0-0-0-0--0-0--|
Gb|--3-3-3-3-3-3-3-3-3-3-3-3-3-3-3-3--2-2--2-2-2-2--0-0--|
Db|--3-3-3-3-3-3-3-3-3-3-3-3-3-3-3-3--2-2--2-2-2-2--0-0--|
Ab|--1-1-1-1-1-1-1-1-1-1-1-1-1-1-1-1--0-0--0-0-0-0--0-0--|
Eb|-------------------------------------------------3-3--|

[Outro]
Same as Chorus


Enjoy!

Suggest correction
Give kudos to tab author, rate the tab!
1 2 3 4 5
comments
print report bad tab
guest
You may want to rate the tab now too:
select rating
Wanna post a correction for this tab? Suggest correction