Oops, an error
Loading. Please wait.

Hello Everyone tab

by Local H
213 views 3 this week
2 commentsread comments
1 2 3 4 5
3 more votes to show rating
add to favorites
×
Save as Personal and add changes to this tab that will be seen only by you. Learn more ›
×
You can save this tab as Personal to edit and correct it or add notes. All changes will be seen only by you. Learn more »
launch autoscroll
font size
0
reset
how to read this tab
guitar tuner
edit
Autoscroll
slow
fast
+/-
esc
set tempo
stop
Author
Artist: Local H
Song: Hello, Everyone
Album: '99-'00 Demos
Listen to the song here: http://www.youtube.com/watch?v=CR42hLR3wbs

Tuning: Drop Db

Took me forever, but I finally figured this song out. There's just so many parts/riffs/fills.



   0:00-0:07
eb|--------------------------------------|
Bb|--------------------------------------|     Guitars 1 and 2
Gb|--------------------------------------|
Db|-330-330-330-330-330-330-330-330--0r--|     Guitar 2 holds the
Ab|-330-330-330-330-330-330-330-330--0r--|         ring out
Db|-330-330-330-330-330-330-330-330--0r--|



   0:07-0:36
eb|---------|
Bb|-3-------|  Guitar 1 plays this over and over
Gb|--4------|
Db|---3p0-0-|
Ab|---------|
Db|---------|

        0:21-0:37
     eb|---------------------|
     Bb|---------------------|    Guitar 2 builds up the chug
     Gb|---------------------|
     Db|-0r--000000000000000-|
     Ab|-0r--000000000000000-|
     Db|-0r--000000000000000-|


  0:37-1:20
eb-------------|-|-----------------|
Bb-------------|-|-----------------|  
                

            
            
Suggest correction
Creating personal tab
Creating personal tab
You can edit any tab online and save it as your Personal.

You can edit, replace or remove any tab part or add personal notes – all changes will be seen only by you.

Personal tabs can be accessed anytime from any device, even offline.
Learn more »
Give kudos to tab author, rate the tab!
1 2 3 4 5
comments
print report bad tab
2 comments total.
0 reply
Mike J 208 Apr 12, 2013 07:04 AM

I don't know why the rest of the tab doesn't show up, it's all there when I try and 'update' it.

0:37-1:20
eb-------------|-|-----------------|
Bb-------------|-|-----------------| <This variation is
Gb-------77-44-|-|-------77-44/5/7-| <played on the last
Db-3p0-0-77-44-|-|-3p0-0-77-44/5/7-| <Time only, leads into...
Ab-3p0-0-55-22-|-|-3p0-0-55-22/3/5-|
Db-3p0-0-------|-|-3p0-0-----------|

1:20-1:34
eb|--------------------------------------------------------------------|
Bb|--------------------------------------------------------------------|
Gb|----77----77----77-44444444/5/77----77----77----77-44444444---------|
Db|-00-77-00-77-00-77-44444444/5/77-00-77-00-77-00-77-44444444-330-330-|
Ab|-00-55-00-55-00-55-22222222/3/55-00-55-00-55-00-55-22222222-330-330-|
Db|-00----00----00------------------00----00----00-------------330-330-|

1:34-1:43
eb|---------------------------------------------|
Bb|---------------------------------------------|
Gb|-77777777-44444444---------------------------|
Db|-77777777-44444444-33333333-55555555-330-330-|
Ab|-55555555-22222222-33333333-55555555-330-330-|
Db|-------------------33333333-55555555-330-330-|

1:43-1:59
eb|--------------------------------------------------------------------------
Bb|--------------------------------------------------------------------------
Gb|-77777777-44444444-77777777-44444444-77777777-44444444-77777777-44--------
Db|-77777777-44444444-77777777-44444444-77777777-44444444-77777777-44-330-330
Ab|-55555555-22222222-55555555-22222222-55555555-22222222-55555555-22-330-330
Db|-------------------------------------------------------------------330-330

1:59-2:03
eb|------------------|
Bb|------------------|
Gb|---77---77---77---|
Db|-0-77-0-77-0-77-0-|
Ab|-0-55-0-55-0-55-0-|
Db|-0----0----0----0-|

2:03-2:30
eb-------------|-|-----------------|
Bb-------------|-|-----------------| <This variation is
Gb-------77-44-|-|-------77-44/5/7-| <played on the last
Db-3p0-0-77-44-|-|-3p0-0-77-44/5/7-| <Time only, leads into...
Ab-3p0-0-55-22-|-|-3p0-0-55-22/3/5-|
Db-3p0-0-------|-|-3p0-0-----------|

2:30-2:43
eb|--------------------------------------------------------------------|
Bb|--------------------------------------------------------------------|
Gb|----77----77----77-44444444/5/77----77----77----77-44444444---------|
Db|-00-77-00-77-00-77-44444444/5/77-00-77-00-77-00-77-44444444-330-330-|
Ab|-00-55-00-55-00-55-22222222/3/55-00-55-00-55-00-55-22222222-330-330-|
Db|-00----00----00------------------00----00----00-------------330-330-|

2:43-2:46
eb|------------------|
Bb|------------------|
Gb|------------------|
Db|-55555555-330-330-|
Ab|-55555555-330-330-|
Db|-55555555-330-330-|

2:46-3:00
eb|--------------------------------------------------------------------------
Bb|--------------------------------------------------------------------------
Gb|-77777777-44444444-77777777-44444444-77777777-44444444-77777777-44-107-107
Db|-77777777-44444444-77777777-44444444-77777777-44444444-77777777-44-107-107
Ab|-55555555-22222222-55555555-22222222-55555555-22222222-55555555-22-885-885
Db|--------------------------------------------------------------------------

3:00-3:14
eb|--------------------------------------------------------------------------
Bb|--------------------------------------------------------------------------
Gb|-77777777-44444444-77777777-44444444-77777777-44444444-77777777-44--------
Db|-77777777-44444444-77777777-44444444-77777777-44444444-77777777-44-330-330
Ab|-55555555-22222222-55555555-22222222-55555555-22222222-55555555-22-330-330
Db|-------------------------------------------------------------------330-330

3:14-3:18
eb|---------------------|
Bb|---------------------|
Gb|---------------------|
Db|-330-330-330-330-330-|
Ab|-330-330-330-330-330-|
Db|-330-330-330-330-330-|

3:18-3:31
eb|---------|
Bb|---------| Guitar 1
Gb|----7/10-|
Db|-00------|
Ab|-00-5/8--|
Db|-00------|
3:24-3:31
eb|--------------------------------|
Bb|--------------------------------| Guitar 2
Gb|--------------------------------|
Db|-00--00--00--00--00--00--0--000-|
Ab|-00--00--00--00--00--00--0--000-|
Db|-00--00--00--00--00--00--0--000-|

3:31-4:18
eb|--------------------------------------------|
Bb|--------------------------------------------|
Gb|----1010----1010----1010-7-55555555---------|
Db|-00------00------00------7-55555555-330-330-|
Ab|-00-8-8--00-8-8--00-8-8--5-33333333-330-330-|
Db|-00------00------00-----------------330-330-|

4:18-4:29
eb|---------------------|
Bb|---------------------|
Gb|---------------------|
Db|-330-330-330-330-330-|
Ab|-330-330-330-330-330-|
Db|-330-330-330-330-330-|

4:29-5:22
eb|----------------------------------------| Mute the open strings a bit
Bb|------------------------------33333333--| and then let it ring out and
Gb|------------------------------22222222--| get messy

0 reply
Mike J 208 Apr 12, 2013 07:05 AM

4:29-5:22
eb|----------------------------------------| Mute the open strings a bit
Bb|------------------------------33333333--| and then let it ring out and
Gb|------------------------------22222222--| get messy here and there
Db|-0000000000000000000000000000000000000--|
Ab|-0000000000000000000000000000000000000--|
Db|-0000000000000000000000000000000000000--|

5:22-5:35 (Guitar 2 is just Scott's effects going up and down)
eb|---------------------------------------------------------------------------|
Bb|---------------------------------------------------------------------------|
Gb|-77777777-44444444-77777777-44444444-77777777-44444444-77777777-44---------|
Db|-77777777-44444444-77777777-44444444-77777777-44444444-77777777-44-330-330-|
Ab|-55555555-22222222-55555555-22222222-55555555-22222222-55555555-22-330-330-|
Db|-------------------------------------------------------------------330-330-|

5:35-5:47
eb|---------------------|
Bb|---------------------|
Gb|-77777777-44---------|
Db|-77777777-44-330-330-|
Ab|-55555555-22-330-330-|
Db|-------------330-330-|

5:47
eb-------------|-|-----------|
Bb-------------|-|-----------|
Gb-------77-44-|-|-----------|
Db-3p0-0-77-44-|-|-3p0xx-0---|r-<ending part
Ab-3p0-0-55-22-|-|-3p0xx-0---|r-<
Db-3p0-0-------|-|-3p0xx-0---|r-<

guest
You may want to rate the tab now too:
select rating
Wanna post a correction for this tab? Suggest correction