Oops, an error
Loading. Please wait.

Bowery Tab

25 views 3 this week
no commentswrite comment
1 2 3 4 5
3 more votes to show rating
add to favorites
launch autoscroll
font size
0
reset
how to read this tab
guitar tuner
Autoscroll
slow
fast
+/-
esc
set tempo
stop
Help us to improve Ultimate-Guitar.com Take our survey!
×
Author
Difficulty
novice
About this tab version
This version has the piano intro played throughout the song. Was this info helpful? Yes No
Song: Bowery
Artist: Local Natives
Album: Hummingbird

This is only for the piano riff that is played throughout most of the song.
Note that this is only for the main riff, so the bass notes played with the
left hand on the piano won't be tabbed here.


[Main Riff]
e|---------------10------10--14--12-10-12---------|
B|---12--10--12------12---------------------------|
G|------------------------------------------------|
D|------------------------------------------------|
A|------------------------------------------------|
E|------------------------------------------------|

e|---------------14--12--10------10------12-------|
B|---12--10--12--------------12------12-----------|
G|------------------------------------------------|
D|------------------------------------------------|
A|------------------------------------------------|
E|------------------------------------------------|

Repeat throughout the entire song as it's pretty much played all the time except 
during the second verse and a chorus. Also note to let each note ring out for as much as possible.

Suggest correction
Give kudos to tab author, rate the tab!
1 2 3 4 5
comments
print report bad tab
guest
You may want to rate the tab now too:
select rating
Wanna post a correction for this tab? Suggest correction