Oops, an error
Loading. Please wait.

Camera Talk bass

557 views 1 this week
no commentswrite comment
1 2 3 4 5
2 more votes to show rating
add to favorites
×
Save as Personal and add changes to this tab that will be seen only by you. Learn more ›
×
You can save this tab as Personal to edit and correct it or add notes. All changes will be seen only by you. Learn more »
launch autoscroll
font size
0
reset
guitar tuner
edit
Autoscroll
slow
fast
+/-
esc
set tempo
stop
Author
Difficulty
Local Natives - Camera Talk Bass tabs!
(x2) = Play twice
( h) = hammer on
Keep in mind that (111111) are 11's and not ones.


Intro: Bass comes in at :22 and ends at :28
G|---------------11-13---|
D|---9-11-9---11---------|
A|-7--------9------------|
E|-----------------------|

At :44 (those ones are 11's)
G|--------------------------|
D|-7777-9999----------------|
A|-----------11111111-9999--|
E|--------------------------|

Then you play this into the chorus (same as intro)
G|----------------------------------111111-131313--|
D|------9999--111111-9999-----111111---------------|
A|-7777------------------9999----------------------|
E|-------------------------------------------------|

Chorus 1:01
G|--9-9-----9-9-77-7--------------------------------------------------|
D|-7---77777--------99-7h9999-9-7h9999--------------------------------|
A|------------------------------------1111-111111-99-99---99-99-------|
E|-----------------------------------------------------999-----999----|

G|--------------------------------------------|
D|--------------------------------------------|
A|-77-77----7-77----99-99---99-9-1111-11------|
E|------777-----777------999------------------|

Right after the last 11 you break into this.
1:19
G|--------------------------|
D|-7777-9999----------------|
A|-----------11111111-9999--|
E|--------------------------|

G|----------------------------------111111-131313--|
D|------9999--111111-9999-----111111---------------|
A|-7777------------------9999----------------------|
E|-------------------------------------------------|

Then back to the next verse, "The buffalo in.."
1:36
G|--------------------------------------------------|
D|-7777-9999----------------------------------------|
A|-----------11111111-9999999997777777777-9999999999|
E|--------------------------------------------------|

1:53
G|--------------------------|
D|-7777-9999----------------|
A|-----------11111111-9999--|
E|--------------------------|

Then play this into the chorus
G|----------------------------------111111-131313--|
D|------9999--111111-9999-----111111---------------|
A|-7777------------------9999----------------------|
E|-------------------------------------------------|

Chorus 2:10
G|--9-9-----9-9-77-7--------------------------------------------------|
D|-7---77777--------99-7h9999-9-7h9999--------------------------------|
A|------------------------------------1111-111111-99-99---99-99-------|
E|-----------------------------------------------------999-----999----|

G|--------------------------------------------|
D|--------------------------------------------|
A|-77-77----7-77----99-99---99-9-1111-11------|
E|------777-----777------999------------------|Play chorus(x2)

After that you pause untill
2:50
G|--------------------------|
D|-7777-9999----------------|
A|-----------11111111-9999--|
E|--------------------------|

G|----------------------------------111111-131313--|
D|------9999--111111-9999-----111111---------------|
A|-7777------------------9999----------------------|
E|-------------------------------------------------| Play (x2)

After that the bass ends!
Thanks for viewing I hope it helped if you need any help list your concerns in the 
comments section!

            
            
Suggest correction
Creating personal tab
Creating personal tab
You can edit any tab online and save it as your Personal.

You can edit, replace or remove any tab part or add personal notes – all changes will be seen only by you.

Personal tabs can be accessed anytime from any device, even offline.
Learn more »
Give kudos to tab author, rate the tab!
1 2 3 4 5
comments
print report bad tab
guest
You may want to rate the tab now too:
select rating
Wanna post a correction for this tab? Suggest correction