Oops, an error
Loading. Please wait.

Ceilings Tab

version 1
version 1

Whole song

14,762 views 51 this week
3 commentsread comments
1 2 3 4 5
accurate
x 4
add to favorites
launch autoscroll
font size
0
reset
how to read this tab
guitar tuner
Tab Pro tools
  • play this tab
  • loop segment
  • change instrument
  • show fretboard
  • metronome
Autoscroll
slow
fast
+/-
esc
set tempo
stop
Difficulty
intermediate
-------------------------------------------------------------------------------
                        Local Natives - Ceilings
-------------------------------------------------------------------------------
Tabbed by: James Enalen
E-mail: enalenj@gmail.com

Tuning: E A D G B e

Chord shapes:

302000
807000
032010
002210

e|-------------------------------------------------------------------------------------|
B|---------------0------------------0--------------------------------------------------|
G|--------0-----------0-------0---------0----------------------------------------------|
D|------------2----------2h4---4----------4p2------------------------------------------|
A|-------------------------------------------------------------------------------------|
E|-----3------------3------------------3-----------------------------------------------|

Singing it along with this riff is difficult. the picking pattern is the same for all 
the chords. listen to the song carefully :)

Good luck!
comments
print report bad tab
3 comments total.
0 reply
Eldt wrote on March 7 2013, 10:00 am

Almost, if you listen closely, you can hear the G bass note every count. Therefore I think this sounds better.


e|----------------------------------------------------------------------|
B|---------------0------------------ 0----------------------------------|
G|--------0-----------0-------0--0-------0------------------------------|
D|------------2----------2h4------4-------4p2---------------------------|
A|----------------------------------------------------------------------|
E|-----3------------3----------3--------3-------------------------------|


If you fix that, I'll give you a five!

0 reply
Eldt wrote on March 7 2013, 10:04 am

Alright I screwed that formatting up. I'll try again..

e|--------------------------------------
B|---------0----------------------------
G|---0--------0------0----0------0------
D|------2--------2h4--------4-------4p2--
A|--------------------------------------
E|3---------3----------3------3---------

0 reply
xxprinmjrxx wrote on June 3 2013, 06:12 pm

http://www.youtube.com/watch?v=VTF2YSKVXtY <- THats a good video to watch if you need the other parts. The awesome camera guy zooms in on both what chords he's playing and how he's picking them

I want to post or [tab]
guest
You may want to rate the tab now too:
select rating
Please do not post tabs as comments. Select "correction" instead!