Oops, an error
Loading. Please wait.

Mt Washington Chords

version 1
version 1

Whole song

36,409 views 456 this week
5 commentsread comments
1 2 3 4 5
excellent!
x 30
add to favorites
launch autoscroll
font size
0
reset
transpose
0
reset
display chords
guitar tuner
Tab Pro tools
  • play this tab
  • loop segment
  • change instrument
  • show fretboard
  • metronome
×
Best way to learn
"Mt Washington"
Autoscroll
slow
fast
+/-
esc
set tempo
stop
Contributor
Difficulty
intermediate
-------------------------------------------------------------------------------
                             Mt. Washington - Local Natives
-------------------------------------------------------------------------------
Tabbed by: Gral. Tanuki
E-mail: pablopa999@gmail.com

Tuning: EADGBE

Chords used (those names are mostly correct, however in most of these chords an open b is occassionaly 
strummed,
so that might change the complete name and general colour of the chord): 

    F#m     D      A       E
e|--------------------------------|
B|-(0)-----(0)-----(0)-----(0)----|
G|--2-------x-------6-------4-----|
D|--4-------4-------7-------6-----|
A|--4-------5-------7-------7-----|
E|--x-------5-------x-------0-----|


When changing from F#m to D(the last three sixtheents of the last quarter of the bar) put your pinky on 
the fourth fret of the G string:
   
  F#m                                D
e|----------------------------------|---------------------------------|
B|-(0)------------------------------|(0)------------------------------|
G|--2-2-2-2-2-2-2-2-2-2-2-2-2-4-4-4-|-x-x-x-x-x-x-x-x-x-x-x-x-x-x-x-x-|
D|--4-4-4-4-4-4-4-4-4-4-4-4-4-4-4-4-|-4-4-4-4-4-4-4-4-4-4-4-4-4-4-4-4-|
A|--4-4-4-4-4-4-4-4-4-4-4-4-4-4-4-4-|-5-5-5-5-5-5-5-5-5-5-5-5-5-5-5-5-|
E|--x-x-x-x-x-x-x-x-x-x-x-x-x-x-x-x-|-5-5-5-5-5-5-5-5-5-5-5-5-5-5-5-5-|
    ^       ^     ^                   ^       ^     ^

The strumming pattern is down up down up in straight sixtheents the whole time and with accents on the 
chords marked with a ^ . The pattern is the same for all the other chords.

Remember to strum occasionaly the open b string. 

-------------------------------------------------------------------------------

[Intro]: F#m, D (x2)

F#m                      D
     Face stained in the ceiling

F#m                   D
     Why does it keep saying,

A                          D
I don't have to see you right now

E                          D        D
I don't have to see you right now

F#m, D (x2)

A, D, E, D

F#m                      D
    Digging like you can bury

F#m                     D
  Something that cannot die

A                                  D
Or we could wash the dirt off our hands now

E                      D
Keep it from living underground

F#m             D
  Lazy summer goddess

F#m                        D
 You can tell our whole empire

A                          D
I don't have to see you right now

E                          D        D
I don't have to see you right now


F#m, D (x2)

A, D, E, D

F#m                      D
I don't have to see you right now

E                      D
I don't have to see you right now

A                          D
I don't have to see you right now

E                          D        D
I don't have to see you right now

[Outro]: F#m, D, F#m, E, F#m, E

-------------------------------------------------------------------------------

That's it!

[Update: corrected a section of the last verse, thanks to Robert Howell]
comments
print report bad tab
5 comments total. Showing first comments.
0 reply
dimentedcats wrote on May 9 2013, 04:35 pm

Your made up chords are wrong. Ha, but if you play them the normal way it sounds good

0 reply
Pablopa99 wrote on May 27 2013, 02:03 pm, edited on August 3 2014, 03:14 am

They're not made up, he actually plays them that way, take a look for yourself and pay attention to the open b string on most of the chords: http://youtu.be/ZdwTEAfycwo The strumming pattern is really important to get it right.If you're lazy or want to play it an easier way just put a capo on the 2nd fret and play the same chords in a more comfortable shape.

0 reply
jjmacy13 wrote on September 3 2014, 06:49 pm

Hey Pablo,
Great job on the tabs. However, I noticed something was off in the F# chord.
The main guitar hammers the pinkie to the 4th fret on the G string, before moving to the D chord, from what this video also confirms (@ starting from 25 seconds): http://youtu.be/H_e0S5WBW7g?t=25s

Take a look and let me know what you think.

I want to post or [tab]
guest
You may want to rate the tab now too:
select rating
Please do not post tabs as comments. Select "correction" instead!