Oops, an error
Loading. Please wait.

Mt Washington tab

14,494 views 96 this week
3 commentsread comments
1 2 3 4 5
x 24
add to favorites
×
Save as Personal and add changes to this tab that will be seen only by you. Learn more ›
×
You can save this tab as Personal to edit and correct it or add notes. All changes will be seen only by you. Learn more »
launch autoscroll
font size
0
reset
how to read this tab
guitar tuner
edit
Autoscroll
slow
fast
+/-
esc
set tempo
stop
Author
Difficulty
-------------------------------------------------------------------------------
                             MT. WASHINGTON - Local Natives
-------------------------------------------------------------------------------
Album: Hummingbird
Tabbed by: Ryan Lung
E-mail: rdlung@gmail.com

Tuning: Standard

Chords: F#m, D, A, E
***All chords can be played normally but the E seems to sound best played like this
    E
e|--4---------------------------------------------------------------------------|
B|--5---------------------------------------------------------------------------|
G|--4---------------------------------------------------------------------------|
D|--6---------------------------------------------------------------------------|
A|--7---------------------------------------------------------------------------|
E|--x---------------------------------------------------------------------------|

Intro: F#m   D - x2

Verse/Chorus 1
    F#m                     D
       Face stained in the ceiling
    F#m                   D
       Why does it keep saying,
    A                       D
    I don't have to see you right now
    E                        D
    I don't have to see you right now

**Before the instrumental part where the second guitar comes in, Taylor stays on the D 
chord for an extra measure. Listen to the song to get the timing.

Guitar 2 Riff 1
  F#m        D
e|---------------------------------------------------------------------------|
B|-7----10--14---------------------------------------------------------------|
G|---------------------------------------------------------------------------|  (2x)
D|---------------------------------------------------------------------------|
A|---------------------------------------------------------------------------|
E|---------------------------------------------------------------------------|
Guitar 2 Riff 2
   A           D           E            D
e|---------------------------------------------------------------------------|
B|-14----12--12--10--------14----12--12--10----------------------------------|
G|---------------------------------------------------------------------------|
D|---------------------------------------------------------------------------|
A|---------------------------------------------------------------------------|
E|---------------------------------------------------------------------------|

   F#m                       D
     Digging like you can bury
    F#m                      D
     Something that cannot die
    A                               D
    We could wash the dirt off our hands now
    E                       D
    Keep it from living underground

   F#m              D
      Lazy summer goddess
    F#m                      D
    You can tell our whole empire
    A                       D
    I don't have to see you right now
    E                       D
    I don't have to see you right now

Guitar 2 Riff 1
  F#m        D
 Ooohhh     Ooooh
e|---------------------------------------------------------------------------|
B|-7----10--14---------------------------------------------------------------|
G|---------------------------------------------------------------------------|  (x2)
D|---------------------------------------------------------------------------|
A|---------------------------------------------------------------------------|
E|---------------------------------------------------------------------------|
Guitar 2 Riff 2
   A           D           E            D
   Oooh Oohh Ooo Ooo       Ooo  Ooo  Ooo Ooo
e|---------------------------------------------------------------------------|
B|-14----12--12--10--------14----12--12--10----------------------------------|
G|---------------------------------------------------------------------------|
D|---------------------------------------------------------------------------|
A|---------------------------------------------------------------------------|

This last verse/chorus includes the guitar riffs.
    F#m                      D
    I don't have to see you right now
    F#m                      D
    I don't have to see you right now
    A                        D
    I don't have to see you right now
    E                        D
    I don't have to see you right now

Outro:
F#m   D (x4)
Suggest correction
Creating personal tab
Creating personal tab
You can edit any tab online and save it as your Personal.

You can edit, replace or remove any tab part or add personal notes – all changes will be seen only by you.

Personal tabs can be accessed anytime from any device, even offline.
Learn more »
comments
print report bad tab
3 comments total.
0 reply
charlottearch 48 Dec 07, 2015 10:34 AM

This is perfect. Thank you SO SO much for sharing this!!

0 reply
JoachimBach 10 Apr 23, 2017 04:59 PM

Anyone who can explain to me how the strumming pattern is?
This is a great tab, but I can't see to figure out how the strumming shall be, I think it will be down, up, down, up. But I have no clue how fast or if I am even correct. Anyone have an idea on how it is?

Great tab though :-)

guest
You may want to rate the tab now too:
select rating
Wanna post a correction for this tab? Suggest correction