Oops, an error
Loading. Please wait.

Wide Eyes Tab

version 1
version 1

Whole song

Interactive

37,695 views 9 this week
2 commentsread comments
1 2 3 4 5
please rate
add to favorites
launch autoscroll
font size
0
reset
how to read this tab
guitar tuner
Tab Pro tools
  • play this tab
  • loop segment
  • change instrument
  • show fretboard
  • metronome
×
Best way to learn
"Wide Eyes"
Autoscroll
slow
fast
+/-
esc
set tempo
stop
Contributor
This is a really good song I just hope you can understand my explanation
Ok so there's a few parts of the song I figured out from a video on youtube,
the one where they play in a museum. If you look closely you'll be able to
see Ryan play the finger picking part from 1:34 to 1:43.


Well here is the 4 parts I figured out of Wide Eyes!

finger picking part...well most of it:
e|-----2-----2-----2-----2-----2-----2-----2-----2--------|
B|-------3-----3-----3-----3-----3-----3-----3-----3------|
G|---------4-----------4-----------4-----------3----------|
D|---4-----------0-----------2-----------4----------------|
A|--------------------------------------------------------|
E|--------------------------------------------------------|
                                         * right here if where it gets iffy
                                         if anyone can figure it out do tell


Bass part on Acoustic (not official but I though it sounded good)
e|--------------------------------------------------------|
B|--------------------------------------------------------|
G|--------------------------------------------------------|
D|---0(h)5555-7(s)22(s)99---------------------------------|
A|----------------------0(h)22222-44(s)55-----------------|
E|--------------------------------------------------------|
(h) means hammer, (s) means slide (I don't know symbols)


The little tune played in the background of the song in some parts:
e|---5(s)7--------------------------------|
B|---------7(s)10-------------------------|
G|----------------7(s)11------------------|
D|-----------------------9(s)7------------|
A|----------------------------------------|
E|----------------------------------------|

chords:
?1: 242222
?2: 353333
Bm: 224432
G:  320033
Em: 022000
*just a little note: I sometimes like to keep my fingers on the B and e when
switching to the Em and then pulling them off half way, just sounds different.

G
Oh some evil spirit,
        Em                  Bm,?1(s)?2 ---and that just repeats
Oh some evil this way comes.
They told me how they fear it,
Now they're placing it on their tongues.

Oh to see it with my own eyes.
Oh to see it with my own eyes.

No food or water,
For the better part of ten months.
Quietly he sat,
Beneath the folds of a tree trunk.

Oh to see it with my own eyes.
Oh to see it with my own eyes.

(I'm not sure about the solo parts)

All the men of faith,
And men of science, have their questions.
Could it ever be on Earth,
as it is in heaven?

Oh to see it with my own eyes.
Oh to see it with my own eyes.


please leave comments!

p.s I'll be putting up World News and Cards and Quarters sometime after I
put up a cover on Youtube. Oh! my Youtube is also jvapa I have some videos
of a show the local natives did and a video of me meeting them check them
out if you'd like!
comments
We did not receive enough feedback on this tab! Please rate:
print report bad tab
1 2 3 4 5
2 comments total.
0 reply
joeyg0522 wrote on June 19 2010, 12:43 pm

I think you're close. My only suggestion would be to use this G.

G: 324300

Let me know what you think.

0 reply
WarnerMontreal wrote on November 6 2013, 09:54 pm

this is the correct main "fingerpicking" riff: (which I believe repeats constantly throughout the entire song)

e|--------2------2----------------2--------2------2-------2------2-----------|
B|-----------3-------3-----3----------3-------3------3-------3---------2-----|
G|-------------4--------------4-----------------4--------------2-------------|
D|---------------------0--------0---0---2--------------4---------------------|
A|-----5---------------------------------------------------------------------|
E|---------------------------------------------------------------------------|

I want to post or [tab]
guest
You may want to rate the tab now too:
select rating
Please do not post tabs as comments. Select "correction" instead!