Oops, an error
Loading. Please wait.

Wooly Mammoth Tab

version 2
version 2

Intro

Whole song

22 views 1 this week
no commentswrite comment
1 2 3 4 5
3 more votes to show rating
add to favorites
launch autoscroll
font size
0
reset
how to read this tab
guitar tuner
×
Best way to learn
"Wooly Mammoth"
Autoscroll
slow
fast
+/-
esc
set tempo
stop
Author
Difficulty
Song: Wooly Mammoth
Artist: Local Natives
Album: Hummingbird


[Intro]

e|------10-14-----12-12-10-------10------12-12--------|
B|---12-------12--------------12-----12--------12-----|
G|----------------------------------------------------|
D|----------------------------------------------------|
A|----------------------------------------------------|
E|----------------------------------------------------|

[Riff]


e|------10------12-12-10-------10------12-12--------|
B|---12-----12--------------12-----12--------12-----|
G|--------------------------------------------------|
D|--------------------------------------------------|
A|--------------------------------------------------|
E|--------------------------------------------------|

This is played throughout the majority of the song, but I'm posting it as the intro,
as the tab is just the main riff.
Suggest correction
Give kudos to tab author, rate the tab!
1 2 3 4 5
comments
print report bad tab
guest
You may want to rate the tab now too:
select rating
Wanna post a correction for this tab? Suggest correction