Oops, an error
Loading. Please wait.

When I Get Down tab

version 2
version 2

Whole song

by Logan
647 views 1 this week
no commentswrite comment
1 2 3 4 5
1 last vote to show rating
add to favorites
×
Save as Personal and add changes to this tab that will be seen only by you. Learn more ›
×
You can save this tab as Personal to edit and correct it or add notes. All changes will be seen only by you. Learn more »
launch autoscroll
font size
0
reset
how to read this tab
guitar tuner
edit
Autoscroll
slow
fast
+/-
esc
set tempo
stop
Tabbed by: Tom
Tuning: Drop C

I disagreed with the tab already here so tabbed this.

D|-------------------------|----------------3--------|
A|----------------7--------|------------3-------3---3|
F|------------9-------9---9|----------------------5--|
c|--------9-------------9--|--------5----------------|
G|----7--------------------|----3--------------------|
C|-------------------------|-------------------------|


D|-------------------------|-------------------------|
A|-------------------------|----------------5--------|
F|----------------7--------|------------7-------7---7|
c|------------7-------7---7|--------7-------------7--|
G|--------5-------------5--|----5--------------------|
C|----5--------------------|-------------------------|

  Watch me...
D|-------------------------|----------------3--------|
A|----------------7--------|------------3-------3---3|
F|------------9-------9---9|----------------------5--|
c|--------9-------------9--|--------5----------------|
G|----7--------------------|----3--------------------|
C|-------------------------|-------------------------|

                            There's no-one...
D|-------------------------|--------------------5----|
A|-------------------------|----------------5-----5--|
F|----------------7--------|------------7-----------7|
c|------------7-------7---7|--------7----------------|
G|--------5-------------5--|----5--------------------|
C|----5--------------------|-------------------------|

                            Me anymore...
D|-------------------------|----------------3--------|
A|----------------7--------|------------3-------3---3|
F|------------9-------9---9|----------------------5--|
c|--------9-------------9--|--------5----------------|
G|----7--------------------|----3--------------------|
C|-------------------------|-------------------------|


D|-------------------------|--------------------5----|
A|----------------5--------|----------------5-----5--|
F|------------7------7---7-|------------7-----------7|
c|--------7------------7---|--------7----------------|
G|----5--------------------|----5--------------------|
C|-------------------------|-------------------------|

  Guitar 1 
D|-------------------------|----------------3--------||
A|----------------7--------|------------3-------3---3||
F|------------9-------9---9|----------------------5--||
c|--------9-------------9--|--------5----------------||
G|----7--------------------|----3--------------------||
C|-------------------------|-------------------------||
                                                      |
  Guitar 2                                            |
D|--------------------7----|------------3------------||
A|----------------------7--|--------------------3----||
F|----9--------------------|----5-------------------5||
c|-------------------------|-------------------------||
G|-------------------------|-------------------------||
C|-------------------------|-------------------------||

  Guitar 1
D|-------------------------|--------------------5----||
A|----------------5--------|----------------5-----5--||
F|------------7------7---7-|------------7-----------7||
c|--------7------------7---|--------7----------------||
G|----5--------------------|----5--------------------||
C|-------------------------|-------------------------||
                                                      |
  Guitar 2                                            |
D|------------5---10-10----|-------------------10----||
A|--------5-----------7----|--------------------7-7-5||
F|----7--------------------|-------------------------||
c|-------------------------|-------------------------||
G|-------------------------|-------------------------||
C|-------------------------|-------------------------||

  Guitar 1 
D|-------------------------|----------------3--------||
A|----------------7--------|------------3-------3---3||
F|------------9-------9---9|----------------------5--||
c|--------9-------------9--|--------5----------------||
G|----7--------------------|----3--------------------||
C|-------------------------|-------------------------||
                                                      |
  Guitar 2                                            |
D|--------------------7----|------------3------------||
A|----------------------7--|--------------------3----||
F|----9--------------------|----5-------------------5||
c|-------------------------|-------------------------||
G|-------------------------|-------------------------||
C|-------------------------|-------------------------||

  Guitar 1 
D|-------------------------|--------------------5----||
A|----------------5--------|----------------5--------||
F|------------7------7---7-|------------7------------||
c|--------7------------7---|--------7----------------||
G|----5--------------------|----5--------------------||
C|-------------------------|-------------------------||
                                                      |
  Guitar 2                                            |
D|------------5---10-10----|-------------------10----||
A|--------5-----------7----|-------------------10----||
F|----7--------------------|-------------------------||
c|-------------------------|-------------------------||
G|-------------------------|-------------------------||
C|-------------------------|-------------------------||

  Guitar 1
  When I get down
D|----10-----------10------|----10-----------10------||
A|------------7----10------|------------7----7-------||
F|-------------------------|-------------------------||
c|-------------------------|-------------------------||
G|-------------------------|-------------------------||
C|-------------------------|-------------------------||
                                                      |
   Guitar 2                                           |
D|--------------------------|------------------------||
A|--------------------------|------------------------||
F|----9---------------------|---5--------------------||
c|----9---------------------|---5--------------------||
G|----7---------------------|---3--------------------||
C|----7---------------------|---3--------------------||

  Guitar 1
D|----10------------9------|-------------------------||
A|------------7-----7------|-------------------------||
F|-------------------------|----7----------7/2-------||
c|-------------------------|----7----------7/2-------||
G|-------------------------|----5----------5/0-------||
C|-------------------------|----5----------5/0-------||
                            Fade in (Distortion)      |
  Guitar 2                                            |
D|-------------------------|-------------------------||
A|-------------------------|-------------------------||
F|----7--------------------|-------------------------||
c|----7--Ring out>---------|-------------------------||
G|----5--------------------|-------------------------||
C|----5--------------------|-------------------------||

Verse A

    Guitar 1 
D|-------------------------|-------------------------|  |
A|-------------------------|-------------------------|  |
F|-------------------------|-------------------------|  |
c|-------------------------|-------------------------|  |
G|-7h10-7-9-7-10-7-9-9-9-10|-7h10-7-9-7-10-7-9-9-9-10|  |
C|-------------------------|-------------------------|  |
                                                        |
                                                        |
D|-------------------------|--------------------------| |
A|-------------------------|--------------------------| |
F|-------------------------|--------------------------| |
c|-------------------------|--------------------------| |
G|-7h10-7-9-7-10-7-9-9-9-10|7h10-7-9-7-10-7-9-9h10p9p7| |
C|-------------------------|--------------------------| |
                                                        |
   Guitar 2                                             |
D|-------------------------|-------------------------|  |
A|-------------------------|-------------------------|  |
F|-------------------------|-------------------------|  |
c|-------------------------|-------------------------|  |
G|-77---77---77---77----777|-33---33---33---33----333|  |
C|-77---77---77---77----777|-33---33---33---33----333|  |
                                                        |
D|-------------------------|-------------------------|  |
A|-------------------------|-------------------------|  |
F|-------------------------|-------------------------|  |
c|-------------------------|-------------------------|  |
G|-55---55---55---55----555|-55---55---55---55----555|  |
C|-55---55---55---55----555|-55---55---55---55----555|  |Do all this x5 THEN

   Guitar 1 
D|-------------------------|-------------------------|  |
A|-------------------------|-------------------------|  |
F|-------------------------|-------------------------|  |
c|-------------------------|-------------------------|  |
G|-7h10-7-9-7-10-7-9-9-9-10|-7h10-7-9-7-10-7-9-9-9-10|  |
C|-------------------------|-------------------------|  |
                                                        |
                                                        |
D|-------------------------|-------------------------|  |
A|-------------------------|--5/---7/---8/---10/---12|  |
F|-------------------------|--x----x----x-----x-----x|  |
c|-------------------------|--2/---4/---5/----7/----9|  |
G|-7h10-7-9-7-10-7-9-9-9-10|-------------------------|  |
C|-------------------------|-------------------------|  |
                                                        |
   Guitar 2                                             |
D|-------------------------|-------------------------|  |
A|-------------------------|-------------------------|  |
F|-------------------------|-------------------------|  |
c|-------------------------|-------------------------|  |
G|-77---77---77---77----777|-33---33---33---33----333|  |
C|-77---77---77---77----777|-33---33---33---33----333|  |
                                                        |
D|-------------------------|-------------------------|  |
A|-------------------------|-------------------------|  |
F|-------------------------|-------------------------|  |
c|-------------------------|-------------------------|  |
G|-55---55---55---55----555|-55---55---55---55----555|  |
C|-55---55---55---55----555|-55---55---55---55----555|  |

Chorus

D|-------------------------|-------------------------|
A|-------------------------|-------------------------|
F|-9--9--9--9--9--9--9--9--|-5--5--5--5--5--5--5--5--|
c|-9--9--9--9--9--9--9--9--|-5--5--5--5--5--5--5--5--|
G|-7--7--7--7--7--7--7--7--|-3--3--3--3--3--3--3--3--|
C|-7--7--7--7--7--7--7--7--|-3--3--3--3--3--3--3--3--|


D|-------------------------|-------------------------|
A|-------------------------|-------------------------|
F|-7--7--7--7--7--7--7--7--|-5--5----5--5----5/4-----|
c|-7--7--7--7--7--7--7--7--|-5--5----5--5----5/4-----|
G|-5--5--5--5--5--5--5--5--|-5--5----5--5----5/4-----|
C|-5--5--5--5--5--5--5--5--|-5--5----5--5----5/4-----| x 2

Verse B

D|-------------------------|-------------------------|
A|-------------------------|-------------------------|
F|-9--9--------------9--9--|-5--5--------------5--5--|
c|-9--9--------------9--9--|-5--5--------------5--5--|
G|-7--7--------------7--7--|-3--3--------------3--3--|
C|-7--7--------------7--7--|-3--3--------------3--3--|
 
D|-------------------------|-------------------------|
A|-------------------------|-------------------7--7--|
F|-7--7--------------7--7--|-7--7--------------7--7--|
c|-7--7--------------7--7--|-7--7--------------7--7--|
G|-5--5--------------5--5--|-5--5--------------5--5--|
C|-5--5--------------5--5--|-5--5--------------5--5--| x2

    Guitar 1 
D|-------------------------|-------------------------|  |
A|-------------------------|-------------------------|  |
F|-------------------------|-------------------------|  |
c|-------------------------|-------------------------|  |
G|-7h10-7-9-7-10-7-9-9-9-10|-7h10-7-9-7-10-7-9-9-9-10|  |
C|-------------------------|-------------------------|  |
                                                        |
                                                        |
D|-------------------------|--------------------------| |
A|-------------------------|--------------------------| |
F|-------------------------|--------------------------| |
c|-------------------------|--------------------------| |
G|-7h10-7-9-7-10-7-9-9-9-10|7h10-7-9-7-10-7-9-9h10p9p7| |
C|-------------------------|--------------------------| |
                                                        |
   Guitar 2                                             |
D|-------------------------|-------------------------|  |
A|-------------------------|-------------------------|  |
F|-------------------------|-------------------------|  |
c|-------------------------|-------------------------|  |
G|-77---77---77---77----777|-33---33---33---33----333|  |
C|-77---77---77---77----777|-33---33---33---33----333|  |
                                                        |
D|-------------------------|-------------------------|  |
A|-------------------------|-------------------------|  |
F|-------------------------|-------------------------|  |
c|-------------------------|-------------------------|  |
G|-55---55---55---55----555|-55---55---55---55----555|  |
C|-55---55---55---55----555|-55---55---55---55----555|  |

   Guitar 1 
D|-------------------------|-------------------------|  |
A|-------------------------|-------------------------|  |
F|-------------------------|-------------------------|  |
c|-------------------------|-------------------------|  |
G|-7h10-7-9-7-10-7-9-9-9-10|-7h10-7-9-7-10-7-9-9-9-10|  |
C|-------------------------|-------------------------|  |
                                                        |
                                                        |
D|-------------------------|-------------------------|  |
A|-------------------------|--5/---7/---8/---10/---12|  |
F|-------------------------|--x----x----x-----x-----x|  |
c|-------------------------|--2/---4/---5/----7/----9|  |
G|-7h10-7-9-7-10-7-9-9-9-10|-------------------------|  |
C|-------------------------|-------------------------|  |


Chorus


D|-------------------------|-------------------------|
A|-------------------------|-------------------------|
F|-9--9--9--9--9--9--9--9--|-5--5--5--5--5--5--5--5--|
c|-9--9--9--9--9--9--9--9--|-5--5--5--5--5--5--5--5--|
G|-7--7--7--7--7--7--7--7--|-3--3--3--3--3--3--3--3--|
C|-7--7--7--7--7--7--7--7--|-3--3--3--3--3--3--3--3--|


D|-------------------------|-------------------------|
A|-------------------------|-------------------------|
F|-7--7--7--7--7--7--7--7--|-5--5----5--5----5/4-----|
c|-7--7--7--7--7--7--7--7--|-5--5----5--5----5/4-----|
G|-5--5--5--5--5--5--5--5--|-5--5----5--5----5/4-----|
C|-5--5--5--5--5--5--5--5--|-5--5----5--5----5/4-----| x 2

Solo

Chords continue as in the Chorus

D|-------------------------|-------------------------|  
A|15b-15p12-12p10-10p8-12b-|-12----11----10----8-----|  
F|-------------------------|-------------------------|  
c|-------------------------|-------------------------|  
G|-------------------------|-------------------------|  
C|-------------------------|-------------------------|  


D|-------------------------|-------------------------|  
A|-------8---------8(AH)---|-8p7p5-------------------|  
F|-9p7-------9p7-----------|--------7p5p4--2--0------|  
c|-----9---------9---------|--------------------5--2-|  
G|-------------------------|-------------------------|  
C|-------------------------|-------------------------|


D|-------------------------------|-------------------------------|  
A|5p3-5p3-5p3-5p3-5p3-5p3-5p3-5p3|7p5-7p5-7p5-7p5-7p5-7p5-7p5-7p5|  
F|-------------------------------|-------------------------------|  
c|-------------------------------|-------------------------------|  
G|-------------------------------|-------------------------------|  
C|-------------------------------|-------------------------------|


D|----------------------------------|-------------------------------|  
A|8p7-8p7-8p7-10p7-8p7-10p7-8p7-10p7|12-12b-12----------------------| 
F|----------------------------------|--(1 1/2)-11h12p11---7---9-----|  
c|----------------------------------|------------------------(AH)---|  
G|----------------------------------|-------------------------------|  
C|----------------------------------|-------------------------------|

Outro

Chords are 9  5  7  7  to the same rhythm as before whilst lead guitar:
           9  5  7  7
           7  3  5  5
           7  3  5  5

   Yeaaahaa....
D|-------------------------------|---------------------------------------|  
A|-------------------------------|---------------------------------------| 
F|-9-------9--9-9--9-9--9-9-9----|-12-------12-----12-12--12-12--12-12-12|  
c|-------------------------------|---------------------------------------|  
G|-------------------------------|---------------------------------------|  
C|-------------------------------|---------------------------------------|


D|------------------------------------|----------------------------------|  
A|------------------------------------|-15-----15------------------------| 
F|-14-------14--14-14--14-14--14-14-14|----------------------16---16---16|  
c|------------------------------------|----------------------------------|  
G|------------------------------------|----------------------------------|  
C|------------------------------------|----------------------------------| x2


  (Where the double-vocals comes in)
D|--15--------------------------14----|--12------------------------10----|  
A|------------------------------------|----------------------------------| 
F|------------------------------------|----------------------------------|  
c|------------------------------------|----------------------------------|  
G|------------------------------------|----------------------------------|  
C|------------------------------------|----------------------------------|

D|--7--------------------------5------|--3--------------------------0----|  
A|------------------------------------|----------------------------------| 
F|------------------------------------|----------------------------------|  
c|------------------------------------|----------------------------------|  
G|------------------------------------|----------------------------------|  
C|------------------------------------|----------------------------------|

D|--15--------------------------14----|--12------------------------10----|  
A|------------------------------------|----------------------------------| 
F|------------------------------------|----------------------------------|  
c|------------------------------------|----------------------------------|  
G|------------------------------------|----------------------------------|  
C|------------------------------------|----------------------------------|

D|--7--------------------------5------|----------------------------------|  
A|------------------------------------|----------------------------------| 
F|------------------------------------|----------------------------------|  
c|------------------------------------|----------------------------------|  
G|------------------------------------|--0---5---0---5---3--3---3h5--0---|  
C|------------------------------------|--0---5---0---5---3--3---3h5--0---|


Suggest correction
Creating personal tab
Creating personal tab
You can edit any tab online and save it as your Personal.

You can edit, replace or remove any tab part or add personal notes – all changes will be seen only by you.

Personal tabs can be accessed anytime from any device, even offline.
Learn more »
Give kudos to tab author, rate the tab!
1 2 3 4 5
comments
print report bad tab
guest
You may want to rate the tab now too:
select rating
Wanna post a correction for this tab? Suggest correction