Oops, an error
Loading. Please wait.

My Music Tab

version 1
version 1

Whole song

Interactive

22 views 1 this week
no commentswrite comment
1 2 3 4 5
3 more votes to show rating
add to favorites
launch autoscroll
font size
0
reset
how to read this tab
guitar tuner
Autoscroll
slow
fast
+/-
esc
set tempo
stop
Help us to improve Ultimate-Guitar.com Take our survey!
×
Author
Difficulty
intermediate
MY MUSIC

As recorded by Loggins & Messina
(From the 1973 Album FULL SAIL)

Words and Music by Kenny Loggins & Jim Messina

Transcribed by Slowhand


Gtr I (E A D G B E) - 'Jim Messina - Electric Guitar'
Gtr II (E A D G B E) - 'Kenny Loggins - Electric Guitar'


 Intro ( A Cappella)
  Q=168(8=s8)
  N.C.
 4/4
  Gtr I (Clean El. Gtr.)
  W          W          W          W
|----------|----------|----------|------|
|----------|----------|----------|------|
|----------|----------|----------|------|
|----------|----------|----------|------|
|----------|----------|----------|------|
|----------|----------|----------|------|


  W          W          W          W
|----------|----------|----------|------||
|----------|----------|----------|------||
|----------|----------|----------|------||
|----------|----------|----------|------||
|----------|----------|----------|------||
|----------|----------|----------|------||


   1st & 2nd Verses
    E5                                  A5
    Gtrs I, II
    PM------------------------------------------------------------------|
    E E E E E E E E   E E E E E E E E   E E E E E E E E   E E E E E E E E
||------------------|-----------------|-----------------|-----------------|
||o-----------------|-----------------|-----------------|-----------------|
||------------------|-----------------|-----------------|-----------------|
||------------------|-----------------|-2-2-4-2-2-2-4-2-|-2-2-4-2-2-2-4-2-|
||o-2-2-4-2-2-2-4-2-|-2-2-4-2-2-2-4-2-|-0-0-0-0-0-0-0-0-|-0-0-0-0-0-0-0-0-|
||--0-0-0-0-0-0-0-0-|-0-0-0-0-0-0-0-0-|-----------------|-----------------|


  E5                                      F#5 G5  G#5   A5  B5  C5  C#5
  PM------------------------------------------------------------------|
  E E E E E E E E   E E E E E E E E   E E E E E E E E   E E E E E E E E
|-----------------|-----------------|-----------------|------------------|
|-----------------|-----------------|-----------------|------------------|
|-----------------|-----------------|-----------------|------------------|
|-----------------|-----------------|-----------------|-2-2-4-4-5-5-6-6--|
|-2-2-4-2-2-2-4-2-|-2-2-4-2-2-2-4-2-|-2-2-4-4-5-5-6-6-|-0-0-2-2-3-3-4-4--|
|-0-0-0-0-0-0-0-0-|-0-0-0-0-0-0-0-0-|-0-0-2-2-3-3-4-4-|------------------|


  D5                                  A5
  PM------------------------------------------------------------------|
  E E E E E E E E   E E E E E E E E   E E E E E E E E   E E E E E E E E
|-----------------|-----------------|-----------------|------------------|
|-----------------|-----------------|-----------------|------------------|
|-----------------|-----------------|-----------------|------------------|
|-7-7-9-7-7-7-9-7-|-7-7-9-7-7-7-9-7-|-----------------|------------------|
|-5-5-5-5-5-5-5-5-|-5-5-5-5-5-5-5-5-|-7-7-9-7-7-7-9-7-|-7-7-9-7-7-7-9-7--|
|-----------------|-----------------|-5-5-5-5-5-5-5-5-|-5-5-5-5-5-5-5-5--|


  E5                  D5                E5                  A5
  PM--------------------------------------------------------|
  E E  E E E E  E E   E E E E E E E E   E E  E E E E  E E   E E Q  H
|-------------------|-----------------|-------------------|-------------||
|-------------------|-----------------|-------------------|-------------||
|-------------------|-----------------|-------------------|-------------||
|-9-9-11-9-9-9-11-9-|-7-7-9-7-7-7-9-7-|-9-9-11-9-9-9-11-9-|-------------||
|-7-7--7-7-7-7--7-7-|-5-5-5-5-5-5-5-5-|-7-7--7-7-7-7--7-7-|-7-----------||
|-------------------|-----------------|-------------------|-5-----------||


 Chorus
  $
  E5                                  A5
  PM------------------------------------------------------------------|
  E E E E E E E E   E E E E E E E E   E E E E E E E E   E E E E E E E E
|-----------------|-----------------|-----------------|------------------|
|-----------------|-----------------|-----------------|------------------|
|-----------------|-----------------|-----------------|------------------|
|-----------------|-----------------|-2-2-4-2-2-2-4-2-|-2-2-4-2-2-2-4-2--|
|-2-2-4-2-2-2-4-2-|-2-2-4-2-2-2-4-2-|-0-0-0-0-0-0-0-0-|-0-0-0-0-0-0-0-0--|
|-0-0-0-0-0-0-0-0-|-0-0-0-0-0-0-0-0-|-----------------|------------------|


  E5                                  A5
  PM------------------------------------------------------------------|
  E E E E E E E E   E E E E E E E E   E E E E E E E E   E E E E E E E E
|-----------------|-----------------|-----------------|------------------|
|-----------------|-----------------|-----------------|------------------|
|-----------------|-----------------|-----------------|------------------|
|-----------------|-----------------|-2-2-4-2-2-2-4-2-|-2-2-4-2-2-2-4-2--|
|-2-2-4-2-2-2-4-2-|-2-2-4-2-2-2-4-2-|-0-0-0-0-0-0-0-0-|-0-0-0-0-0-0-0-0--|
|-0-0-0-0-0-0-0-0-|-0-0-0-0-0-0-0-0-|-----------------|------------------|


  E5                                  A5
  PM------------------------------------------------------------------|
  E E E E E E E E   E E E E E E E E   E E E E E E E E   E E E E E E E E
|-----------------|-----------------|-----------------|------------------|
|-----------------|-----------------|-----------------|------------------|
|-----------------|-----------------|-----------------|------------------|
|-----------------|-----------------|-2-2-4-2-2-2-4-2-|-2-2-4-2-2-2-4-2--|
|-2-2-4-2-2-2-4-2-|-2-2-4-2-2-2-4-2-|-0-0-0-0-0-0-0-0-|-0-0-0-0-0-0-0-0--|
|-0-0-0-0-0-0-0-0-|-0-0-0-0-0-0-0-0-|-----------------|------------------|


                                      1.
                             To Coda
  E5                                   A5
  PM-------------------------------------------------------|
  E E E E E E E E   E E E E E E E E    E E E E E E E E   E E Q  H
|-----------------|------------------|-----------------|--------------||
|-----------------|------------------|-----------------|-------------o||
|-----------------|------------------|-----------------|--------------||
|-----------------|------------------|-2-2-4-2-2-2-4-2-|-2------------||
|-2-2-4-2-2-2-4-2-|-2-2-4-2-2-2-4-2--|-0-0-0-0-0-0-0-0-|-0-----------o||
|-0-0-0-0-0-0-0-0-|-0-0-0-0-0-0-0-0--|-----------------|--------------||


                          Interlude
  2.
  D5                         E6
                           Gtr I
  W          +W            E e E e E e E e   E e E e E e E e
|----------|------------||---9---9---9---9-|---9---9---9---9--|
|----------|------------||---9---9---9---9-|---9---9---9---9--|
|----------|------------||---9---9---9---9-|---9---9---9---9--|
|-7--------|-(7)--------||-----------------|------------------|
|-5--------|-(5)--------||-----------------|------------------|
|----------|------------||-----------------|------------------|


    A                                                                    N.C.
  E e E e E e E e   E e E e E e E e   E e E e E e E e   E e E e E e Q    W
|---5---5---5---5-|---5---5---5---5-|---9---9---9---9-|---9---9---9----|------|
|---5---5---5---5-|---5---5---5---5-|---9---9---9---9-|---9---9---9----|------|
|---6---6---6---6-|---6---6---6---6-|---9---9---9---9-|---9---9---9----|------|
|-----------------|-----------------|-----------------|----------------|------|
|-----------------|-----------------|-----------------|----------------|------|
|-----------------|-----------------|-----------------|----------------|------|


             Guitar Solo
              D
               |---3---|  |---3---|  |---3---|  |---3---|
  W            E  E    E  E  E    E  E  E    E  E  E    E
|----------||-10s=8----8--8s10---10-10s=8----8--8s10---10-|
|----------||-12s10---10-10s12---12-12s10---10-10s12---12-|
|----------||-11s=9----9--9s11---11-11s=9----9--9s11---11-|
|----------||---------------------------------------------|
|----------||---------------------------------------------|
|----------||---------------------------------------------|
|
| Gtr II
|              PM------------------------------------------
| W            E    E     E    E     E    E     E    E
|----------||---------------------------------------------|
|----------||---------------------------------------------|
|----------||---------------------------------------------|
|----------||--7----7-----9----7-----7----7-----9----7----|
|----------||--5----5-----5----5-----5----5-----5----5----|
|----------||---------------------------------------------|


   |---3---|  |---3---|
   E  E    E  E  E    E  Q   E  E
|-10s=8----8--8s10---10\--------9-|
|-12s10---10-10s12---12\-------10-|
|-11s=9----9--9s11---11\--------9-|
|---------------------------------|
|---------------------------------|
|---------------------------------|
|
|------------------------------|
|  E    E     E    E     E E E  E
|---------------------------------|
|---------------------------------|
|---------------------------------|
|--7----7-----9----7-----7-7-9--7-|
|--5----5-----5----5-----5-5-5--5-|
|---------------------------------|


  A                                            E
   E E  E E  E E  E E    Q   E  E Q     E  E    E E  E  E Q     E  E
|--9------------------|--9---8--9-----/12-12-|-12-x-11-10-----/10-10-|
|-10---12---13---12---|-10---9-10-----/14-14-|-14-x-13-12-----/12-12-|
|--9---11---12---11---|--9---8--9-----/13-13-|-13-x-12-11-----/11-11-|
|---------------------|----------------------|-----------------------|
|---------------------|----------------------|-----------------------|
|---------------------|----------------------|-----------------------|
|
|  PM-------------------------------------------------------------|
|  E E  E E  E E  E E    E E E  E E E   E  E    E E  E  E E E   E  E
|---------------------|----------------------|-----------------------|
|---------------------|----------------------|-----------------------|
|---------------------|----------------------|-----------------------|
|---------------------|----------------------|--9-9-11--9-9-9--11--9-|
|--7-7--9-7--7-7--9-7-|--7-7-9--7-7-7---9--7-|--7-7--7--7-7-7---7--7-|
|--5-5--5-5--5-5--5-5-|--5-5-5--5-5-5---5--5-|-----------------------|


                                             D.S. al Coda
  D                     E                      A
   E E  E  E Q    E E    E E  E E  E  E  E E    E E Q  H
|-10----9--8------9---|--9----9--------------|--------------||
|-12---11-10-----10---|-10---10---12-10-12---|-10-----------||
|-11---10--9----------|----------------------|--------------||
|---------------------|----------------------|--------------||
|---------------------|----------------------|--------------||
|---------------------|----------------------|--------------||
|
|  PM------------------------------------------|
|  E E  E  E E E  E E    E E  E E  E  E  E E    E E Q  H
|---------------------|----------------------|--------------||
|---------------------|----------------------|--------------||
|---------------------|----------------------|--------------||
|--7-7--9--7-7-7--9-7-|--9-9-11-9--9--9-11-9-|--------------||
|--5-5--5--5-5-5--5-5-|--7-7--7-7--7--7--7-7-|--7-----------||
|---------------------|----------------------|--5-----------||


 Interlude
  &
  A5                   G#5    A5                  G#5
  Gtrs I, II
  E E Q  H      H    E Q.     H     H      H    E Q.
|-------------|-------------|------------|--------------|
|-------------|-------------|------------|--------------|
|-------------|-------------|------------|--------------|
|-------------|-------------|------------|--------------|
|-7-----------|--------6----|-7\---------|--------6-----|
|-5-----------|--------4----|-5\---------|--------4-----|


  A5                  G#5    A5                     E5
  H     H      H    E Q.     H     H      H    Q  E E
|------------|-------------|------------|--------------||
|------------|-------------|------------|--------------||
|------------|-------------|------------|--------------||
|------------|-------------|------------|--------------||
|-7\---------|--------6----|-7\---------|-----------2--||
|-5\---------|--------4----|-5\---------|-----------0--||


 Chorus
  E5                                    A5
   PM-------------------------------------------------------------------|
  +E  E E E E E E E   E E E E E E E E   E E E E E E E E   E E E E E E E E
|-------------------|-----------------|-----------------|------------------|
|-------------------|-----------------|-----------------|------------------|
|-------------------|-----------------|-----------------|------------------|
|-------------------|-----------------|-2-2-4-2-2-2-4-2-|-2-2-4-2-2-2-4-2--|
|-(2)-2-4-2-2-2-4-2-|-2-2-4-2-2-2-4-2-|-0-0-0-0-0-0-0-0-|-0-0-0-0-0-0-0-0--|
|-(0)-0-0-0-0-0-0-0-|-0-0-0-0-0-0-0-0-|-----------------|------------------|


  E5                                  A5
  PM------------------------------------------------------------------|
  E E E E E E E E   E E E E E E E E   E E E E E E E E   E E E E E E E E
|-----------------|-----------------|-----------------|------------------|
|-----------------|-----------------|-----------------|------------------|
|-----------------|-----------------|-----------------|------------------|
|-----------------|-----------------|-2-2-4-2-2-2-4-2-|-2-2-4-2-2-2-4-2--|
|-2-2-4-2-2-2-4-2-|-2-2-4-2-2-2-4-2-|-0-0-0-0-0-0-0-0-|-0-0-0-0-0-0-0-0--|
|-0-0-0-0-0-0-0-0-|-0-0-0-0-0-0-0-0-|-----------------|------------------|


  E5          D5/A              A5
                                PM------------------------------|
  H.      +E  E   +H.      Q    E E E E E E E E   E E E E E E E E
|---------------|-------------|-----------------|------------------|
|---------------|-------------|-----------------|------------------|
|-------------2-|-(2)---------|-----------------|------------------|
|-2-------(2)-0-|-(0)---------|-2-2-4-2-2-2-4-2-|-2-2-4-2-2-2-4-2--|
|-2-------(2)-0-|-(0)---------|-0-0-0-0-0-0-0-0-|-0-0-0-0-0-0-0-0--|
|-0-------(0)---|-------------|-----------------|------------------|


                          Outro
  E5                       N.C.
  Gtr I                    Gtr I
  W          Q  H.          E E  E E  E E  E E    E E E  E  +Q    Q
|----------|------------||---------------------|----------------------*|
|----------|------------||-10---12---13---12---|-10-----10-(10)\------*|
|----------|------------||--9---11---12---11---|--9------9--(9)\------*|
|-2--------|----2-------||---------------------|----------------------*|
|-2--------|----2-------||---------------------|----------------------*|
|-0--------|-0--0-------||---------------------|----------------------*|


Duration Legend
---------------
W - whole; H - half; Q - quarter; E - 8th; S - 16th; T - 32nd; X - 64th; a - acciaccatura
+ - note tied to previous; . - note dotted; .. - note double dotted
Uncapitalized letters represent notes that are staccato (1/2 duration)
Irregular groupings are notated above the duration line
Duration letters will always appear directly above the note/fret number it represents the
duration for.  Duration letters with no fret number below them represent rests.  Multi-
bar rests are notated in the form Wxn, where n is the number of bars to rest for.  Low
melody durations appear below the staff

Tablature Legend
----------------
 h   - hammer-on
 p   - pull-off
 b   - bend
 pb  - pre-bend
 r   - bend release (if no number after the r, then release immediately)
 /\  - slide into or out of (from/to "nowhere")
 s   - legato slide
 S   - shift slide
  - natural harmonic
[n]  - artificial harmonic
n(n) - tapped harmonic
 ~   - vibrato
 tr  - trill
 T   - tap
 TP  - trem. picking
 PM  - palm muting
\n/  - tremolo bar dip; n = amount to dip
 \n  - tremolo bar down
 n/  - tremolo bar up
/n\  - tremolo bar inverted dip
 =   - hold bend; also acts as connecting device for hammers/pulls
 <>  - volume swell (louder/softer)
 x   - on rhythm slash represents muted slash
 o   - on rhythm slash represents single note slash

Misc Legend
-----------
 |  - bar
||  - double bar
||o - repeat start
o|| - repeat end
*|  - double bar (ending)
 :  - bar (freetime)
 $  - Segno
 &  - Coda
Tempo markers -  = BPM(8/16=s8/s16), where s8 = swing 8ths, s16 = swing 16ths
Suggest correction
Give kudos to tab author, rate the tab!
1 2 3 4 5
comments
print report bad tab
guest
You may want to rate the tab now too:
select rating
Wanna post a correction for this tab? Suggest correction