Oops, an error
Loading. Please wait.

Nikki Tab

version 1
version 1

Whole song

1,447 views 54 this week
4 commentsread comments
1 2 3 4 5
x 14
add to favorites
launch autoscroll
font size
0
reset
how to read this tab
guitar tuner
×
Best way to learn
"Nikki"
Autoscroll
slow
fast
+/-
esc
set tempo
stop
Author
Difficulty
[Riff that repeats for whole song]

e|-------------------------------------|
B|--------7---6---4---2---1---2---1----|
G|--3----------------------------------|
D|-------------------------------------|
A|-------------------------------------|
E|-------------------------------------|

e|-------------------------------------|
B|------------------6------------------|
G|--1---3---5---6----------------------|
D|-------------------------------------|
A|-------------------------------------|
E|-------------------------------------|
Suggest correction
comments
print report bad tab
guest
You may want to rate the tab now too:
select rating
Wanna post a correction for this tab? Suggest correction