Oops, an error
Loading. Please wait.

How We Roll Tab

2,609 views 1 this week
no commentswrite comment
1 2 3 4 5
2 more votes to show rating
add to favorites
launch autoscroll
font size
0
reset
how to read this tab
guitar tuner
Autoscroll
slow
fast
+/-
esc
set tempo
stop
Help us to improve Ultimate-Guitar.com Take our survey!
×
Author
Difficulty
Tuning
novice
D A D G B E
This song is written out for two guitars... both distortion

G-|uitar 1 - (Drop D) - D-A-D-G-B-E
G-|uitar 2 - (Standard) E-A-D-G-B-E

Guitar 1 (opening synth)- Verses

    F
E|--------------------------------|
B|--------------------------------|
G|-------------------x-1p0--------|
D|--------3-----1------------3---1|
A|--------------------------------|
D|--3-----------------------------|

    Eb
E|--------------------------------|
B|--------------------------------|
G|-------------------x-1p0--------|
D|--------3-----1------------3---1|
A|--------------------------------|
D|--1-----------------------------|

    C#
E|--------------------------------|
B|--------------------------------|
G|----------------x1p0------------|
D|------3----------------3----1---|
A|--4-------4---------------------|
D|--------------------------------|

    C
E|--------------------------------|
B|--------------------------------|
G|--------------------------------|
D|----3-------------3------3h5~---|
A|--5---5-------5-------5---------|
D|--------------------------------|

Pre Chorus

Both Guitars (this part dont matter what tuning guitar you use, the top string is not needed)


          So time after time....
      F    Eb    C#
E|------------------|
B|------------------|
G|----10----8-----6-|
D|----10----8-----6-|
A|----8-----6-----4-|
E|------------------|

Chorus

Guitar 1 (listen to figure out strum pattern)

 you and me on our...
E|--------------------------------|
B|--------------------------------|
G|--------------------------------|
D|------------------8---6---1---3-|
A|------------------8---6---1---3-|
D|------------------8---6---1---3-|

Guitar 2 chorus

E|---------------------------------|
B|---------------------------------|
G|--------------------------8---10-|
D|------------------8---6---8---10-|
A|------------------8---6---6---8--|
E|------------------6---4----------|

Those parts cover the whole song, and for the bridge bit its the same chords as the chorus
http://www.myspace.com/loickessien
Suggest correction
Give kudos to tab author, rate the tab!
1 2 3 4 5
comments
print report bad tab
guest
You may want to rate the tab now too:
select rating
Wanna post a correction for this tab? Suggest correction