Oops, an error
Loading. Please wait.

Good Night White Pride Bass Tab

version 1
version 1

Whole song

Interactive

3,202 views 3 this week
no commentswrite comment
1 2 3 4 5
x 3
add to favorites
launch autoscroll
font size
0
reset
guitar tuner
Autoscroll
slow
fast
+/-
esc
set tempo
stop
Help us to improve Ultimate-Guitar.com Take our survey!
×
Loikaemie - Good Night White Pride


G ||-------------------||-------------------||-------------------|
D ||-------------------||-------------------||-------------------|
A ||-------------------||-------------------||-------------------|
E ||-0-0-6-0-5-0-4--0--||-0-0-6-0-5-0-4--3--||-0-0-6-0-5-0-4--0--|

G |-------------------||
D |-------------------||
A |-------------------||
E |-0-0-6-0-5-0-4--3--||  

G ||-------------------||-------------------||     
D ||-------------------||-------------------|| .|  4 mal!
A ||-------------------||-------------------||  |
E ||--0--6-0-5-0-4-0---||--0--6-0-5-0-4-----||  |


     E         C           G         H
          p.m.      p.m.        p.m.
G ||--------------------||-------------------||  |
D ||--------------------||-------------------|| .|  2 mal!
A ||-----------3-3--3-3-||-----------2-2-2-2-||  |
E ||-0-0--0-0-----------||-3-3--3-3----------||  |


E(E-0)          C(A-3)      G(E-3)        H(A-2)
You pick on the weak, your only strong in groups,
E(E 0)            C(A3)        G(E3)                 H(A2)
Can`t do shit on your own, You pick on those who are few
E(E0)        C(A3)      G(E3)           H(A2)
Right winged scum, You have no place in our scene
E(E0)        C(A3        G(E3)           H(A2)
Right winged scum, We’ll teach you what skinhead really means


G ||-------------------||-------------------||  |
D ||-------------------||-------------------|| .|  4 mal!
A ||-------------------||-------------------||  |
E ||--0--6-0-5-0-4-0---||--0--6-0-5-0-4-----||  |


    E          C           G         H
          p.m.      p.m.        p.m.
G ||--------------------||-------------------||  |
D ||--------------------||-------------------|| .|  2 mal!
A ||-----------3-3--3-3-||-----------2-2-2-2-||  |
E ||-0-0--0-0-----------||-3-3--3-3----------||  |


E          C        G        H
You`re the sickness   of our generation
E      C        G        H
You`ve infested   almost every nation
E          C      G        H
You`re the plague   of our society
E          C   G            H
You`re are our   most hated enemy

     p.m...............    p.m...............
G ||--------------------||--------------------||
D ||--------------------||--------------------||
A ||--------------------||--------------------||
E ||-0-0--0-0--0-0--0-0-||-0-0--0-0--0-0--0-0-||

     p.m..     p.m.....     p.m.        p.m.......
         let ring               let ring
G ||----------------------||----------------------||  |
D ||----------------------||----------------------|| .|  2 mal!
A ||----------------------||----------------------||  |
E ||-0-0----0----0-0--0-0-||-0-0----0----0-0--0-0-||  |




E              C                 G           H
Listen what we have to say: Good night white pride
E            C                 G           H
Only what we have to say: Good night white pride
     E           C           G           H
Good night, good night, good night, good night white pride
     E           C           G           H
Good night, good night, good night, good night white pride

G ||--------------------||
D ||--------------------||
A ||--------------------||
E ||-0-0--0-0--0-0--0-0-||

    p.m..     p.m.....     p.m.        p.m.......
         let ring               let ring
G ||----------------------||----------------------||
D ||----------------------||----------------------||   Am Schluss folgt nur 
A ||----------------------||----------------------||   noch dieses Riff!
E ||-0-0----0----0-0--0-0-||-0-0----0----0-0--0-0-||

     p.m..     p.m.....     p.m.              let ring
         let ring               let ring
G ||----------------------||----------------------||
D ||----------------------||----------------------||   Schlusstakt!
A ||----------------------||--------------2-2-----||
E ||-0-0----0----0-0--0-0-||-0-0----0---------0---||

 --

Scheint alles soweit gut zu klingen!
Hoffe soweit alles richtig! 
MFG Timmey
Suggest correction
Give kudos to tab author, rate the tab!
1 2 3 4 5
comments
print report bad tab
guest
You may want to rate the tab now too:
select rating
Wanna post a correction for this tab? Suggest correction