Oops, an error
Loading. Please wait.

Merk Dir Meinen Namen Bass Tab

805 views 1 this week
no commentswrite comment
1 2 3 4 5
3 more votes to show rating
add to favorites
launch autoscroll
font size
0
reset
guitar tuner
Autoscroll
slow
fast
+/-
esc
set tempo
stop
Help us to improve Ultimate-Guitar.com Take our survey!
×
Author
Difficulty
intermediate
Loikaemie - Merk dir meinen Namen
tabbed by Daniel Welzbacher

Intro,  voice only.

Verse 2x
G|-----------------------------------------------|
D|-----------------------------------------------|
A|111111111111---------------------345555555555/3|
E|------------111111111111555555555--------------|

Refrain
2x
G|-----------------------------------------------|
D|-----------------------------------------------|
A|1-1-1-1-1-1------------------------------------|
E|------------1-1-1-1-1-1-5-5-5-5-5/10-10-10-10--|
 
1x
G|----------------------------------------------------|
D|----------------------------------------------------|
A|111111111111---------------------55555-55555-555310-|
E|------------111111111111555555555-------------------|

interlude
6x
G|----------------------------------------------------|
D|-----------------0-3-5-3----------------------------|
A|00-00-11-11-33-33-----------------------------------|
E|----------------------------------------------------| 

Verse 2x
G|-----------------------------------------------|
D|-----------------------------------------------|
A|111111111111---------------------345555555555/3|
E|------------111111111111555555555--------------|

Refrain
2x
G|-----------------------------------------------|
D|-----------------------------------------------|
A|1-1-1-1-1-1------------------------------------|
E|------------1-1-1-1-1-1-5-5-5-5-5/10-10-10-10--|

1x
G|----------------------------------------------------|
D|----------------------------------------------------|
A|111111111111---------------------55555-55555-555310-|
E|------------111111111111555555555-------------------|

interlude
6x
G|----------------------------------------------------|
D|-----------------0-3-5-3----------------------------|
A|00-00-11-11-33-33-----------------------------------|
E|----------------------------------------------------| 

Verse 2x
G|-----------------------------------------------|
D|-----------------------------------------------|
A|111111111111---------------------345555555555/3|
E|------------111111111111555555555--------------|

outo
G|------------------------------------------------------|
D|------------------------------------------------------|
A|--11--------------------------------------------------|
E|--------11--------------------------------------------|


Suggest correction
Give kudos to tab author, rate the tab!
1 2 3 4 5
comments
print report bad tab
guest
You may want to rate the tab now too:
select rating
Wanna post a correction for this tab? Suggest correction