Oops, an error
Loading. Please wait.

Mit Freundlichen Gren Bass Tab

520 views 3 this week
no commentswrite comment
1 2 3 4 5
please rate
add to favorites
launch autoscroll
font size
0
reset
guitar tuner
Autoscroll
slow
fast
+/-
esc
set tempo
stop
Help us to improve Ultimate-Guitar.com Take our survey!
×
Author
Difficulty
novice
Artist:     Loikaemie
Title:      Mit Freundlichen Grüßen
Tabbed by:  Daniel Welzbacher

Intro (first guitar only)

G|---------------------|---------------------|
D|---------------------|---------------------|
A|------------1-1-3-3-3|------------1-1-3-3-3|
E|3-3-1-3-3-3----------|3-3-1-3-3-3----------|

Verse
G|----|----|----|------|
D|----|----|----|------|
A|----|----|----|------|
E|3-3-|3-3-|1-1-|1'3-3-|

Interlude
G|----|----|----|----|
D|----|----|----|----|
A|3---|3---|3---|3---|
E|----|----|----|----|

Refrain
G|----|----|----|----|----|----|----|
D|----|----|----|----|----|----|----|
A|----|1111|----|----|----|1111|3~~~|
E|3333|----|1111|3333|3333|----|----|

G|----|----|----|----|----|----|----|----|
D|----|----|----|----|----|----|----|----|
A|----|1111|----|----|----|1111|3~~~|3~~~|3|
E|3333|----|1111|3333|3333|----|----|----|


2:25  =

G|----|-3-3|----|-5-5|
D|-5-5|----|-3-3|----|
A|----|1-1-|----|3-3-|
E|3-3-|----|1-1-|----|

G|----|----|----|----|----|----|----|
D|----|----|----|----|----|----|----|
A|----|1111|----|----|----|1111|3~~~|
E|3333|----|1111|3333|3333|----|----|

G|----|----|----|----|----|----|----|----|
D|----|----|----|----|----|----|----|----|
A|----|1111|----|----|----|1111|3~~~|3~~~|3|
E|3333|----|1111|3333|3333|----|----|----|



Suggest correction
Give kudos to tab author, rate the tab!
1 2 3 4 5
comments
print report bad tab
guest
You may want to rate the tab now too:
select rating
Wanna post a correction for this tab? Suggest correction