Oops, an error
Loading. Please wait.

Leekspin Bass Tab

3,420 views 3 this week
no commentswrite comment
1 2 3 4 5
please rate
add to favorites
launch autoscroll
font size
0
reset
guitar tuner
Autoscroll
slow
fast
+/-
esc
set tempo
stop
Help us to improve Ultimate-Guitar.com Take our survey!
×
Author
Difficulty
novice
Loituma: Levan Pollka(Leekspin) Bass Cover
Tabbed by: SirToasty
Email: foodcourtproductions@hotmail.com
Youtube Video: https://www.youtube.com/watch?v=VoE9_OFo0o8&feature=youtu.be


G|------------------------------------|
D|------9-10-7-7-10-9-------9-10-7-7--|
A|--7-7---------------10-10-----------|
E|7-----------------------------------|

G|-------------------------------------------|
D|------9-10-7-7-10-14-14-14-14-12-9-10-7-7--|
A|--7-7--------------------------------------|
E|7------------------------------------------|

G|------------------------------------------------|
D|-10-14-14-14-12-10-9-------9-12-12-12-10-9-7-7--|
A|---------------------10-10----------------------| x2
E|------------------------------------------------|

Then you just repeat this over and over
Suggest correction
Give kudos to tab author, rate the tab!
1 2 3 4 5
comments
print report bad tab
guest
You may want to rate the tab now too:
select rating
Please do not post tabs as comments. Select "correction" instead!