Oops, an error
Loading. Please wait.

Levan Polka Tab

version 1
version 1

Whole song

Interactive

8,404 views 153 this week
no commentswrite comment
1 2 3 4 5
accurate
x 3
add to favorites
launch autoscroll
font size
0
reset
how to read this tab
guitar tuner
Autoscroll
slow
fast
+/-
esc
set tempo
stop
Help us to improve Ultimate-Guitar.com Take our survey!
×
Contributor
Difficulty
intermediate
It basically repeats through the whole song.

e|-0---0-0-2-3-2-0-0-0-0-3-2---------3-3-0-0--0---0-0-2-3-2-0-0-0-0-3-2---------3-3-0-0-|
B|---0-----------------------3-3-3-3------------0-----------------------3-3-3-3---------|
G|--------------------------------------------------------------------------------------|
D|--------------------------------------------------------------------------------------|
A|--------------------------------------------------------------------------------------|
E|--------------------------------------------------------------------------------------|

e|-0-3-7-7-5-3-2---------2-5-5-3-2-3-0-0-0-0-3-7-7-5-3-2---------2-5-5-3-2-3-0-0-|
B|---------------3-3-3-3---------------------------------3-3-3-3-----------------|
G|-------------------------------------------------------------------------------|
D|-------------------------------------------------------------------------------|
A|-------------------------------------------------------------------------------|
E|-------------------------------------------------------------------------------|
comments
We did not receive enough feedback on this tab! Please rate:
print report bad tab
1 2 3 4 5
I want to post or [tab]
guest
You may want to rate the tab now too:
select rating
Please do not post tabs as comments. Select "correction" instead!