Oops, an error
Loading. Please wait.

Time Is Industry Tab

219 views 1 this week
3 commentsread comments
1 2 3 4 5
2 more votes to show rating
add to favorites
launch autoscroll
font size
0
reset
how to read this tab
guitar tuner
Autoscroll
slow
fast
+/-
esc
set tempo
stop
This isn't only the intro, it is played again afer the first chorus (I think...).
It's really easy. Just listen for timing.

e-0---------------------------------------------------|
B---3-------------------------------------------------|
G------4-2-4-5-4-2-0----------------------------------|
D--------------------2-4-5-9-9-2-4-5-9-9--------------|
A-----------------------------------------------------|
E-----------------------------------------------------|

That's it. It's really easy. If I figure out the rest, I'll post it. Good luck!
Suggest correction
Give kudos to tab author, rate the tab!
1 2 3 4 5
comments
print report bad tab
3 comments total.
0 reply
damnconfused 10 Sep 11, 2004 08:00 PM

Awesome tab, hurry up and figure out the rest.

0 reply
damnconfused 10 Sep 11, 2004 08:00 PM

(I'm a huge fan of lola ray)

0 reply
funlittlejeff 10 Oct 18, 2010 02:58 AM

This is more how it sounds to me and plays a bit more smoothly. soft on the 5's though

e-----------------------------------------------------|
B-5-3-------------------------------------------------|
G------4-2-4-5-4-2-0-------4-4--------4-4-------------|
D--------------------2-4-5--5-5-2-4-5--5-5------------|
A-----------------------------------------------------|
E-----------------------------------------------------|

guest
You may want to rate the tab now too:
select rating
Wanna post a correction for this tab? Suggest correction