Oops, an error
Loading. Please wait.

Sallys Song Tab

601 views 1 this week
no commentswrite comment
1 2 3 4 5
please rate
add to favorites
launch autoscroll
font size
0
reset
how to read this tab
guitar tuner
Autoscroll
slow
fast
+/-
esc
set tempo
stop
Help us to improve Ultimate-Guitar.com Take our survey!
×
Contributor
Difficulty
novice
 There was a version under danny elfman but it was wrong 
so I fixed it.

I like LAMs version best
Fixed tabbed by: Zorax Xeris

                       I sense there's.........

e|---------------0-----0-----0-----0-----0-----0-----1-----1-----1-----1---|
B|---------------0-----0-----0-----0-----0-----0-----1-----1-----1-----1---|
G|---------------0-----0-----0-----0-----0-----0-----2-----2-----2-----2---|
D|---------1--2-----------2-----------2--------------3-----3-----3-----3---|
A|---2--4-----------2-----------2-----------2-----------3-----------3------|
E|------------------------------------------------1-----------1------------|
                                                            Etc.
e|-------------------0-----0-----0-----0-----3-----3-----1---------------|
B|-----4------4------0-----0-----0-----0-----3-----3-----1---------------|
G|-----4------4------0-----0-----0-----0-----0-----0-----2---------------|
D|-----4------4------2-----2-----2-----2--------0------------------------|
A|--2-------------------2-----------2------------------------------------|
E|---------2------0-----------0-----------3-----------1------------------|






Em                               F
I sense there's something in the wind
                B            Em
That feels like tragedy's at hand
               G                  F
And though I'd like to stand by him
                 B              Em
Can't shake this feeling that I have
             G                  F
The worst is just around the bend
            Em    B               C
And does he notice my feelings for him
F           Em      B                C
And will he see how much he means to me
  B                 Em
I think it's not to be
Em                          F
What will become of my dear friend
               B               Em
Where will his actions lead us then
             G                  F
Although I'd like to join the crowd
         B            Em
In their enthusiastic cloud
        G               F
Try as I may it doesn't last
            Em   B          C
And will we ever end up together
F          Em
No I think not
     B        C
It’s never to become
    B            Em
For I am not the one
comments
We did not receive enough feedback on this tab! Please rate:
print report bad tab
1 2 3 4 5
I want to post or [tab]
guest
You may want to rate the tab now too:
select rating
Please do not post tabs as comments. Select "correction" instead!