Oops, an error
Loading. Please wait.

Spider And The Fly Acoustic Tab

2,124 views 6 this week
no commentswrite comment
1 2 3 4 5
please rate
add to favorites
launch autoscroll
font size
0
reset
how to read this tab
guitar tuner
Autoscroll
slow
fast
+/-
esc
set tempo
stop
Help us to improve Ultimate-Guitar.com Take our survey!
×
Difficulty
novice
    Fm#                  Hm
1------------------------7-7-9-7-5--5--7-7-9-7-5---5-------|
2---7-7-9-10---7-7-9-10--------------------------7---7-----|
3----------------------------------------------------------|
4----------------------------------------------------------|
5----------------------------------------------------------|
6----------------------------------------------------------|

gtr2
1---2---2------2---2------2---2----------------------------|
2---2-x-2-x----2-x-2-x----3-x-3-x--------------------------|
3---2-x-2-x----2-x-2-x----4-x-4-x----.......---------------|
4---4-x-4-x----4-x-4-x----4-x-4-x----.......--i-tak-dalee--|
5---4-x-4-x----4-x-4-x----2---2----------------------------|
6---2---2------2---2---------------------------------------|
Suggest correction
Give kudos to tab author, rate the tab!
1 2 3 4 5
comments
print report bad tab
guest
You may want to rate the tab now too:
select rating
Please do not post tabs as comments. Select "correction" instead!