Oops, an error
Loading. Please wait.

Sunny Hours bass

version 1
version 1

Whole song

Interactive

830 views 1 this week
no commentswrite comment
1 2 3 4 5
3 more votes to show rating
add to favorites
×
Save as Personal and add changes to this tab that will be seen only by you. Learn more ›
×
You can save this tab as Personal to edit and correct it or add notes. All changes will be seen only by you. Learn more »
launch autoscroll
font size
0
reset
guitar tuner
edit
Autoscroll
slow
fast
+/-
esc
set tempo
stop
Author
Difficulty
Tuning:EADG

VERSE:
|---2-------------------------------|
|-22------7----7-----7--------------|
|----------5-5----------------------|
|-----555--------555----------------|

AT AROUND 30 SECONDS IS A TRICK:
|--------------|
|--875---------|
|------757-----|
|-5------------|

THEN CONTINUE WITH THE VERSE:
|---2-------------------------------|
|-22------7----7-----7--------------|
|----------5-5----------------------|
|-----555--------555----------------|

PRE CHORUS 0:36:          THEN THIS:    THE NOTES RIGHT BEFORE THE CHORUS:
|-------------|           |----------|  |--------------|
|-------------| 2x!!!!    |--7775----|  |--------------|
|-7~5~4~------|           |-------7-|1x |-77-7-55-5----|
|-------5~----|           |----------|  |-----------5~-|

CHORUS:
|----------------------|
|----------------------|
|-7777------5555-------|
|------5555------5555--|

VERSE:
|---2-------------------------------|
|-22------7----7-----7--------------|
|----------5-5----------------------|
|-----555--------555----------------|

LITTLE THING:
|--------------|
|--875---------|
|------757-----|
|-5------------|

PRE CHORUS:               THEN THIS:    THE NOTES RIGHT BEFORE THE CHORUS:
|-------------|           |----------|  |--------------|
|-------------| 2x!!!!    |--7775----|  |--------------|
|-7~5~4~------|           |-------7--|1x|-77-7-55-5----|
|-------5~----|           |----------|  |-----------5~-|

CHORUS:
|----------------------|
|----------------------|
|-7777------5555-------|
|------5555------5555--|

RIGHT BEFORE VERSE:
|---------------|
|------------7--|
|-7-775-5-555---|
|---------------|

VERSE:
|---2-------------------------------|
|-22------7----7-----7--------------|
|----------5-5----------------------|
|-----555--------555----------------|

PRE-CHORUS:                         Then:       CHORUS:
|-----------------------------|     |-------|   |--------------------|
|----------7775---------------|     |-------|   |--------------------|
|-7~-5~-4~-----7--------------|3x   |-7~-5~-|1x |-7777----5555-------|
|-----------------------------|     |-------|   |-----5555----5555---|


VERSE:
|---2-------------------------------|
|-22------7----7-----7--------------|
|----------5-5----------------------|2x
|-----555--------555----------------|

then will.I.am says "The goin get tought, the tough get goin in the mountain.

THATS IT, EMAIL ME AT sublimefan2355@yahoo.com FOR AND QUESTIONS AND CORRECTIONS....I 
THIS AT 1 IN THE MORNING!  MY NAME IS TYLER!

            
            
Suggest correction
Creating personal tab
Creating personal tab
You can edit any tab online and save it as your Personal.

You can edit, replace or remove any tab part or add personal notes – all changes will be seen only by you.

Personal tabs can be accessed anytime from any device, even offline.
Learn more »
Give kudos to tab author, rate the tab!
1 2 3 4 5
comments
print report bad tab
guest
You may want to rate the tab now too:
select rating
Wanna post a correction for this tab? Suggest correction