Oops, an error
Loading. Please wait.

Black Paper Planes Tab

5,982 views 9 this week
2 commentsread comments
1 2 3 4 5
excellent!
x 7
add to favorites
launch autoscroll
font size
0
reset
how to read this tab
guitar tuner
Autoscroll
slow
fast
+/-
esc
set tempo
stop
Help us to improve Ultimate-Guitar.com Take our survey!
×
Author
Tuning
D A D G B E
Artist: Long Distance Calling
Album:  Avoid The Light (2009)
Song:   Black Paper Planes
Label:  Superball Music
Tuning: Drop D (D-A-D-g-b-e)

Tabbed by: dupree79

----------------------------PLEASE-NOTE--------------------------------------
This file is the author's own work and represents their interpretation of the
song. You may only use this file for private study, scholarship, or research.
-----------------------------------------------------------------------------


******************

| /   slide up
| h   hammer-on
| p   pull-off

*******************


INTRO (0:29 - 0:43)

Guitar 1

e|------------------------------------------------|
B|------------------------------------------------|
G|------------------------------------------------|
D|------------------------------------------------| repeat
A|--8---------5-----------8---------5-----------8-|
D|-----0-0-0-----0-0-0-0-----0-0-0-----0-0-0-0----|

PART 1 (0:44 - 1:12)

Guitar 1

e|------------------------------------------------|
B|------------------------------------------------|
G|------------------------------------------------|
D|------------------------------------------------| repeat
A|--8---------5-----------8---------5-----------8-|
D|-----0-0-0-----0-0-0-0-----0-0-0-----0-0-0-0----|

Guitar 2

e|---------------------------------------------------------|
B|---------------------------------------------------------|
G|---------------------------------------------------------|
D|---------------------------------------------------------|  x 4
A|---------------------------------------8-8-8-8-5-5-5-5-3-|
D|--3--0-0-0--12--0-0-0-0--3--0-0-0--12--8-8-8-8-5-5-5-5-3-|


Guitar 2 ends at 1:12 with e|------|
                           B|------|
                           G|------| let ring
                           D|------|
                           A|--0---|
                           D|--0---|

PART 2 (1:26 - 1:41)

Guitar 1 plays Part 1!

Guitar 2

e|--------------------------------|
B|---------------------------9----| slide down to the end of your fretboard
G|--5--7--10--9--5--7--10--9------|
D|--------------------------------|
A|--------------------------------|
D|--------------------------------|


PART 3 (1:41 - 2:10)

Guitar 1

e|---------------------------------------------------------------------------|
B|---------------------------------------------------------------------------|
G|---------------------------------------------------------------------------|
D|---------------------------------------------------------------------------|
A|-8--------5-----------8---------5-----------8---------5-----------8--------|
D|---0-0-0-----0-0-0-0-----0-0-0-----0-0-0-0-----0-0-0-----0-0-0-0-----0-0-0-|

  ---------|
  ---------|
  ---------| repeat
  ---------|
  ---5--3--|
  ---------|


Guitar 2

e|--------------------------------------------------------------------------|
B|--------------------------------------------------------------------------|
G|--------------------------------------------------------------------------|
D|--------------------------------------------------------------------------|
A|--------------------------------------------------------------------------|
D|--3--0-0-0--12--0-0-0-0--3--0-0-0--12--0-0-0-0--3--0-0-0--12--0-0-0-0--3--|

  ----------------|
  ----------------|
  ----------------| repeat
  ----------------|
  ----------------|
  --0-0-0-12--10--|

both guitars ends with e|------|
                       B|------|
                       G|------| let ring
                       D|------|
                       A|--0---|
                       D|--0---|


PART 4 (2:24 - 2:52)

Synthesizer/Computer Part for Guitar

e|--------------------------------------------------------------------------|
B|--------------------------------------------------------------------------|
G|-9--7--10--5----9--7--10--12--14----9--7--10------12----9--7--10--12--14--|
D|----------------------------------------------10--------------------------|
A|--------------------------------------------------------------------------|
D|--------------------------------------------------------------------------|

PART 5 (2:53 - 3:35)

Guitar 1

e|------------------------------------------12-12-12-12h13-13----------------|
B|-----15-----------15-15-15-13-15------15-----------------------------------|
G|---14---------12--------------------14----------------------------12-------|
D|-12------9/10---------------------12-------------------------9/10----------|
A|---------------------------------------------------------------------------|
D|---------------------------------------------------------------------------|

  ---------------------------------------------------------------------------|
  --15-15-15-13-15------15--15-15-15-13-15-----------15-15-15-13-15------15--|
  --------------------14-------------------------12--------------------14----|
  ------------------12----------------------9/10---------------------12------|
  ---------------------------------------------------------------------------|
  ---------------------------------------------------------------------------|

  12-12-12-12h13-13-----------------------------------------------------------|
  ---------------------------15--15-15-13-15------15--15-15-15-13-15----------|
  -------------------------12-------------------14-------------------------12-|
  --------------------9/10--------------------12----------------------9/10----|
  ----------------------------------------------------------------------------|
  ----------------------------------------------------------------------------|

  -------------------------12-12-12-12h13-13--------------------------------|
  -15-15-15-13-15------15------------------------------15-15-15-13-15-------|
  -------------------14----------------------------12-----------------------|
  -----------------12-------------------------9/10--------------------------|
  --------------------------------------------------------------------------|
  --------------------------------------------------------------------------|


Guitar 2 (3:07 - 3:35)

e|------------|
B|------------|
G|---9h10p----| repeat with hammer on & pull off
D|------------|
A|------------|
D|------------|

PART 6 (3:36 - 3:50)

Guitar 1

e|--5------1--5------1--|
B|--5------1--5------1--|
G|--7-7--3-3--7-7--3-3--|
D|--7-7--3-3--7-7--3-3--|
A|----5--1------5--1----|
D|----------------------|

Guitar 2 plays part 5!


PART 7 (3:51 - 4:18)

Guitar 1

e|--5-5-------|
B|--6-5-------|
G|--7-7----7--|  x 4
D|--7----8-8--|
A|--5----5----|
D|------------|


Guitar 2

e|---------------------------------------------------------------------------|
B|---------------------------------------------------------------------------|
G|------7-------------------------7-------------------------7----------------|
D|---7-----5--7--8--5--7--7----7-----5--7--8--5--7--7----7-----5--7--8--5--7-|
A|---------------------------------------------------------------------------|
D|---------------------------------------------------------------------------|


  ----------------------------------|
  ----------------------------------|
  ----------------------------------|  x 2
  --7--10--10--10--10--10--5--5--5--|
  ----------------------------------|
  ----------------------------------|


PART 8 (4:19 - 4:48)

Guitar 1

e|---------------------------------------------------------------------------|
B|---------------------------------------------------------------------------|
G|----7---5---7-5-5------------------------------7-5-7-9-9-10----------------|
D|---7--7---7-------7h8-8-8-8-8-7-7-7-7-7h8-8---7----7-7-7-7--7h8-8-8-8-8-7--|
A|--5------------------------------------------5-----------------------------|
D|---------------------------------------------------------------------------|

  ---------------|                        |---------|
  ---------------|                        |---------|
  ---------------| x 2 & ends with        |----7----| let ring
  --7-7-7-7h8-8--|                        |----7----|
  ---------------|                        |----5----|
  ---------------|                        |---------|


Guitar 2

e|---------------------------------------|
B|---------------------------------------|
G|---7---3--2-3--7--7-9-9-10--3--2-3---7-|   x 2 / repeat the chords
D|---7---3--2-3--7--7-7-7-7---3--2-3---7-|  (not sure about guitar 2 part)
A|---5---1--0h1--5------------1--0h1---5-|
D|---------------------------------------|

PART 9 (4:49 - 5:45)

Guitar 1

e|---------------------------|
B|--10--8--10--8--11--10--8--| repeat
G|---------------------------|
D|---------------------------|
A|---------------------------|
D|---------------------------|

  around 5:20 it changes to

e|---0--0--0---0--0---0---0--|
B|--10--8--10--8--11--10--8--|
G|---------------------------| repeat
D|---------------------------|
A|---------------------------|
D|---------------------------|


Guitar 2

e|--------------------------------------------------------------|
B|----------------------- 10-10-10------------------------------|
G|--3--3-3-3/5-5-5-5-5-7--7--7--7----------------------7-3-7-3--|
D|--3--3-3-3/5-5-5-5-5-7--0--0--0----------------------7-3-7-3--|
A|--1--1-1-1/3-3-3-3-3-5-----------10--10-10-10-10-10--5-1-5-1--|
D|---------------------0-----------10--10-10-10-10-10-----------|

PART 10 (5:46 - 6:42)

Guitar 1

e|---------------------------------------------------------------------------|
B|---------------------------------------------------------------------------|
G|--10--9--14/10--10--9--12--10--9--10--9--14/10--10--9--12--10--9--14--12---|
D|---------------------------------------------------------------------------|
A|---------------------------------------------------------------------------|
D|---------------------------------------------------------------------------|

  -----------------------------------------------------------------|
  -----------------------------------------------------------------|
  --14------14--12--15--14--12--14--12--14------14--12--15--14--12-|
  ------15----------------------------------15---------------------|
  -----------------------------------------------------------------|
  -----------------------------------------------------------------|


Guitar 2

e|-----------------------|
B|-----------------------|
G|---7---------7---------| change & repeat between this chords/listen
D|---7--8--10--7--8--10--| for rhythm
A|---5--8--10--5--8--10--|
D|---0--8--10--0--8--10--|

PART 11 (6:43 - end)

Guitar 1 plays part 3!

Guitar 2

e|---------------------------------------------------------------------------|
B|---------------------------------------------------------------------------|
G|---------------------------------------------------------------------------|
D|---------------------------------------------------------------------------|
A|---------------------------------------------------------------------------|
D|--3--0-0-0--12--0-0-0-0--3--0-0-0--12--0-0-0-0--3--0-0-0--12--0-0-0-0--3---|

  ----------------|
  ----------------|
  ----------------| x 2
  ----------------|
  ----------------|
  --0-0-0-12--10--|

  ------------------------------------------------------------|
  ------------------------------------------------------------|
  ------------------------------------------------------------|
  ------------------------------------------------------------|  x 2
  ------------------------------------------8-8-8-8-5-5-5-5-3-|
  --3--0-0-0--12--0-0-0-0--3--0-0-0--12-0-0-8-8-8-8-5-5-5-5-3-|


                             end

 dupree79, 23.05.2010


 http://www.myspace.com/longdistancecalling
Suggest correction
comments
print report bad tab
2 comments total.
0 reply
nima.bakhtiari 242 wrote on June 8 2015, 01:05 am

thank you very much dear friend. cheers

0 reply
dupree79 91 wrote on June 10 2015, 05:44 pm

Thank you, I am glad that you like it

guest
You may want to rate the tab now too:
select rating
Please do not post tabs as comments. Select "correction" instead!