Oops, an error
Loading. Please wait.

Getaway tab

58 views 1 this week
no commentswrite comment
1 2 3 4 5
2 more votes to show rating
add to favorites
×
Save as Personal and add changes to this tab that will be seen only by you. Learn more ›
×
You can save this tab as Personal to edit and correct it or add notes. All changes will be seen only by you. Learn more »
launch autoscroll
font size
0
reset
how to read this tab
guitar tuner
edit
Autoscroll
slow
fast
+/-
esc
set tempo
stop
Author
Difficulty
About this tab version
This tab is written for one guitar and the main parts are written down. Was this info helpful? Yes No
Artist: Long Distance Calling
Album:  TRIPS (2016)
Song:   Getaway
Label:  InsideOut
Tuning: Standard (EADGBe)
Tabbed by: dupree79

guitar starts at 0:30 min.
e|-----------|
B|-----------|
G|-----0--0--|
D|-----2--2--|
A|--2--2--2--|
E|--0--------|

e|--------------------------------------------------------------------0-----------|
B|--------------------------------------------------------------------0-----------|
G|--------------------------------------------------------------------0-----------|
D|--------------------------------------------------------------------2-----------|
A|--------------2-----------------------------2-----------------------2-----------|
E|--3--3--5--5--0--3--3--5--5/10--3--3--5--5--0--3--3--5--5/10--3--5--0--3--5/10--|

melody starts at 1:15 min 
In the original song the part is probably played by a keyboard/synthesizer
e|---------------------------------------------------------------------------|
B|--8--7--------8--7---------------------------------------------------------|
G|--------7--9--------7-----7--9--------7------------------------------------|
D|-----------------------9--------9--7-----9---------------------------------|
A|--------------------------------------------9--7---------------------------|
E|---------------------------------------------------------------------------|

e|---------------------------------------------------------------------------|
B|--8--7--------8--7--------7--8--10--8--7--8--7-----------------------------|
G|--------7--9--------7---------------------------7--9-----------------------|
D|-----------------------9---------------------------------------------------|
A|---------------------------------------------------------------------------|
E|---------------------------------------------------------------------------|

e|---------------------------------------------------------------------------|
B|--12--10--------------17--------------------------17-----------------------|
G|----------12--14--16----------16--14--12--14--16---------------------------|
D|--------------------------14-----------------------------------------------|
A|---------------------------------------------------------------------------|
E|---------------------------------------------------------------------------|

interlude starts at 2:14 min
e|--0--0--|  e|--0--0--|
B|--1--1--|  B|--1--1--|   *fast downstroke/upstroke
G|--0--0--|  G|--2--2--|
D|--2--2--|  D|--2--2--|
A|--3--3--|  A|--0--0--|
E|--------|  E|--------|
    *  *         *  *

rock part starts from minute 2:28 min
e|-----7--7--7--7--7---8---8---5--5--5--5--5--5--|
B|-----8--8--7--7--10--8---8---7--7--5--8--5--5--|
G|-----9--9--9--9--9---9---9---7--7--7--7--5--5--|   two times!
D|-----9--9--9--9--9---10--10--7--7--7--7--7--7--|
A|-----7--7--7--7--7---10--10--5--5--5--5--7--7--|
E|--0------------------8---8---------------5--5--|  

melody starts at 3:03 min
e|-----------------------------------------------------------------------------|
B|--8--7--------8--7-----------------------------------------------------------|
G|--------7--9--------7-----7--9--------7--------------------------------------|
D|-----------------------9--------9--7-----9-----------------------------------|
A|--------------------------------------------9--7-----------------------------|
E|-----------------------------------------------------------------------------|

e|-----------------------------------------------------------------------------|
B|--8--7--------8--7--------7--8--10--8--7--8--7-------------------------------|
G|--------7--9--------7---------------------------7--9-------------------------|
D|-----------------------9-----------------------------------------------------|
A|-----------------------------------------------------------------------------|
E|-----------------------------------------------------------------------------|

e|------------------------------------------------------15--14--15--17b19--(17)--|
B|--12--10--------------17--------------------------17---------------------------|
G|----------12--14--16----------16--14--12--14--16-------------------------------|
D|--------------------------14---------------------------------------------------|
A|-------------------------------------------------------------------------------|
E|-------------------------------------------------------------------------------|

e|--------0-------------------------------------------------------------------|
B|--------0-------------------------------------------------------------------|
G|--------0-------------------------------------------------------------------|
D|--------0-------------------------------------------------------------------|
A|--------2-------------------------------------------------------------------|
E|--3--5--2--3--5-------------------------------------------------------------|

************************************

| *   Downstroke/Upstroke
| /   Slide up
| (n) Ghost note

************************************
Suggest correction
Creating personal tab
Creating personal tab
You can edit any tab online and save it as your Personal.

You can edit, replace or remove any tab part or add personal notes – all changes will be seen only by you.

Personal tabs can be accessed anytime from any device, even offline.
Learn more »
Give kudos to tab author, rate the tab!
1 2 3 4 5
comments
print report bad tab
guest
You may want to rate the tab now too:
select rating
Wanna post a correction for this tab? Suggest correction