Oops, an error
Loading. Please wait.

Mexico bass

25 views 1 this week
no commentswrite comment
1 2 3 4 5
3 more votes to show rating
add to favorites
×
Save as Personal and add changes to this tab that will be seen only by you. Learn more ›
×
You can save this tab as Personal to edit and correct it or add notes. All changes will be seen only by you. Learn more »
launch autoscroll
font size
0
reset
guitar tuner
edit
Autoscroll
slow
fast
+/-
esc
set tempo
stop
Mexico
Recorded by Long John Baldry for the 1968 Olympic Games. Reached
Number 15 in UK charts. Tab by bass50611. Welcome to my tab of this
Nice easy going song to play along to. More or less as the original
My thanks to Kraziekhat for the chords. PLEASE NOTE THE TUNING  
Original recorded down a semi tone. Comments at bass254@btinternet.com 

Intro:
Gb|-------------------------------
Db|-3--3----3--3----3--3----3--3--
Ab|-----3-------3-------3-------3-
Eb|-------------------------------

Verse:
Gb|----------------------------------------------------------------
Db|-3--3----3--3----5--5----5--5----5--5------------3--3----5--5-5-
Ab|-----3-------3-------5-------5-------5---3--3-3------3-------5--
Eb|----------------------------------------------------------------

Gb|-------------------------------
Db|-3--3----3--3----5--5----5--5--
Ab|-----3-------3-------5-------5-
Eb|-------------------------------

Pre-Chorus:
Gb|----------------------------------------------------------
Db|----------------------------------------------------------
Ab|---------3--3-3----------5--5-5---------------------------
Eb|-3--3-3----------6--6-6----------3--3-3---4--4-4---3--3-3-

Gb|--------------------------
Db|--------------------------
Ab|-3--3-3---3--3-3---3--3-3-
Eb|--------------------------

Chorus 1:
Gb|---------------------------------------------------------------------
Db|-3--3-3-------------------------3--3-3-------------------------------
Ab|--------1--1-1----------3--3-3---------1--1-1--------3--3-3---0--0-0-
Eb|----------------3--3-3------------------------3--3-3-----------------

Gb|-----------------------------------------
Db|-------------------------3--3-3---3--3-3-
Ab|-5--5-5----------3--3-3------------------
Eb|---------3--3-3--------------------------

Repeat Verse & Pre-Chorus:

Chorus 2:
Gb|---------------------------------------------------------------------
Db|-3--3-3-------------------------3--3-3-------------------------------
Ab|--------1--1-1----------3--3-3---------1--1-1--------3--3-3---0--0-0-
Eb|----------------3--3-3------------------------3--3-3-----------------

Gb|-----------------------------------------
Db|-------------------------3--3-3----------
Ab|-5--5-5----------3--3-3-----------4--4-4-
Eb|---------3--3-3--------------------------

Instrumental 1 (Key Change To F#)
Gb|-----------------------------------------------------------------------
Db|-4--4-4-------------------------4--4-4---------------------------------
Ab|---------2--2-2---------4--4-4----------2--2-2---------4--4-4---0--0-0-
Eb|-----------------4--4-4------------------------4--4-4------------------

  (Back To Original Key Of F)
Gb|--------
Db|--------
Ab|-5--5-5-
Eb|--------

Chorus 3 (Including Instrumental 2):
Gb|---------------------------------------------------------------------
Db|------------------------------------------------3--3-3---------------
Ab|---------------------------5--5-5--------3--3-3--------1--1-1--------
Eb|-3--3-3---3--3-3--3-5--5-5--------3--3-3----------------------3--3-3-

Gb|-------------------------------------------------------
Db|--------3--3-3-----------------------------------------
Ab|-3--3-3--------1--1-1---------3--3-3---0--0-0---5--5-5-
Eb|-----------------------3--3-3--------------------------

Repeat Chorus 3 To Fade:

Suggest correction
Creating personal tab
Creating personal tab
You can edit any tab online and save it as your Personal.

You can edit, replace or remove any tab part or add personal notes – all changes will be seen only by you.

Personal tabs can be accessed anytime from any device, even offline.
Learn more »
Give kudos to tab author, rate the tab!
1 2 3 4 5
comments
print report bad tab
guest
You may want to rate the tab now too:
select rating
Wanna post a correction for this tab? Suggest correction