Oops, an error
Loading. Please wait.

No Direction Bass Tab

4 views 1 this week
no commentswrite comment
1 2 3 4 5
3 more votes to show rating
add to favorites
launch autoscroll
font size
0
reset
guitar tuner
Autoscroll
slow
fast
+/-
esc
set tempo
stop
Help us to improve Ultimate-Guitar.com Take our survey!
×
Author
Difficulty
Tuning
novice
D A D G B E
About this tab version
This tab is based on the studio album version. Was this info helpful? Yes No
[Intro] (0:00 - 0:26) repeat four times

G|-------------------------------------------------------------------------------------|
D|-9-9-9-9-9-9-9-9-9-9-9-9-9-11-11-11--------------------------------------------------|
A|------------------------------------11-11-11-11-11-11-11-11-11-11-11-11-11-11-11-11--| 
D|-------------------------------------------------------------------------------------|

[Verse] (0:26 - 1:17) Play twice

G|----------------------------------------------------------------------------------|
D|-9-9-9-9-9-9-9-9-9-9-9-9-9-9-9-9--------------------------------------------------| 
A|---------------------------------11-11-11-11-11-11-11-11-11-11-11-11-11-11-11-11--| 
D|----------------------------------------------------------------------------------|

G|----------------------------------------------------------------------------------|
D|-9-9-9-9-9-9-9-9-9-9-9-9-9-9-9-9--------------------------------------------------| 
A|---------------------------------11-11-11-11-11-11-11-11-11-11-11-11-11-11-11-11--| 
D|----------------------------------------------------------------------------------|

G|----------------------------------------------------------------------------------|
D|----------------------------------------------------------------------------------|
A|-9-9-9-9-9-9-9-9-9-9-9-9-9-9-9-9-11-11-11-11-11-11-11-11-11-11-11-11-11-11-11-11--| 
D|----------------------------------------------------------------------------------|

G|----------------------------------------------------------------------------------|
D|----------------------------------------------------------------------------------|
A|-9-9-9-9-9-9-9-9-9-9-9-9-9-9-9-9-11-11-11-11-11-11-11-11-11-11-11-11-11-11-11-11--| 
D|----------------------------------------------------------------------------------|

[Chorus] (1:18 - 1:30)

G|------------------------------------------------------------------|
D|---------------------------------9-9-9-9-9-9-9-9-9-9-9-9-9-9-9-9--| 
A|-6-6-6-6-6-6-6-6-6-6-6-6-6-6-6-6----------------------------------| 
D|------------------------------------------------------------------|

G|-----------------8-8-6-6-----6-6----------------------------------|
D|-------------------------9-9-----9-9-9-9-9-9-9-9-9-9-9-9-9-9-9-9--| 
A|-6-6-6-6-6-6-6-6--------------------------------------------------| 
D|------------------------------------------------------------------|

[Intro] Play twice (1:30 - 1:43)

[Verse] Rest takes place between (1:43 - 1:53). Bass resumes between (1:53 - 2:08)

G|----------------------------------------------------------------------------------|
D|-x-x-x-x-x-x-x-x-x-x-x-x-x-x-x-x--------------------------------------------------|
A|---------------------------------x-x-x-x-x-x-x-x-x-x-x-x-x-x-x-x------------------|
D|----------------------------------------------------------------------------------|

G|----------------------------------------------------------------------------------|
D|-x-x-x-x-x-x-x-x-x-x-x-x-x-x-x-x--------------------------------------------------|
A|---------------------------------11-11-11-11-11-11-11-11-11-11-11-11-11-11-11-11--| 
D|----------------------------------------------------------------------------------|

G|----------------------------------------------------------------------------------|
D|----------------------------------------------------------------------------------|
A|-9-9-9-9-9-9-9-9-9-9-9-9-9-9-9-9-11-11-11-11-11-11-11-11-11-11-11-11-11-11-11-11--| 
D|----------------------------------------------------------------------------------|

G|----------------------------------------------------------------------------------|
D|----------------------------------------------------------------------------------|
A|-9-9-9-9-9-9-9-9-9-9-9-9-9-9-9-9-11-11-11-11-11-11-11-11-11-11-11-11-11-11-11-11--| 
D|----------------------------------------------------------------------------------|

[Chorus] (2:09 - 2:22)

G|------------------------------------------------------------------|
D|---------------------------------9-9-9-9-9-9-9-9-9-9-9-9-9-9-9-9--| 
A|-6-6-6-6-6-6-6-6-6-6-6-6-6-6-6-6----------------------------------| 
D|------------------------------------------------------------------|

G|-----------------8-8-6-6-----6-6----------------------------------|
D|-------------------------9-9-----9-9-9-9-9-9-9-9-9-9-9-9-9-9-9-9--| 
A|-6-6-6-6-6-6-6-6--------------------------------------------------| 
D|------------------------------------------------------------------|

[Rest] (2:22 - 2:46)

[Guitar Solo] (2:47 - 3:12)

G|-----------------------------------------------------------------------|
D|-----------------------------------------------------------------------| 
A|-/11\-2-2-2-2-2-2-2-2-2-2-2-2-2-4-4-4----------------------------------| 
D|--------------------------------------6-6-6-6-6-6-6-6-6-6-6-6-6-6-6-6--| 

G|---------------------------------------------------------------|
D|---------------------------------/6-6-6-6-6-6-6-6-6-6-6-6-6-6--| 
A|-2-2-2-2-2-2-2-2-2-2-2-2-2-4-4-4-------------------------------| 
D|---------------------------------------------------------------|

G|---------------------------------------------------------------------|
D|---------------------------------------------------------------------| 
A|---------------------------------------------------------------------| 
D|-9\-4-4-4-4-4-4-4-4-4-4-4-4-4-4-4-4-6-6-6-6-6-6-6-6-6-6-6-6-6-6-6-6--|

G|------------------------------------------------------------------|
D|---------------------------------6-6-6-6-6-6-6-6-6-6-6-6-6-6-6-6--| 
A|------------------------------------------------------------------| 
D|-4-4-4-4-4-4-4-4-4-4-4-4-4-4-4-4----------------------------------| 

[Chorus] (3:13 - 3:38) Play twice

G|------------------------------------------------------------------|
D|---------------------------------9-9-9-9-9-9-9-9-9-9-9-9-9-9-9-9--| 
A|-6-6-6-6-6-6-6-6-6-6-6-6-6-6-6-6----------------------------------| 
D|------------------------------------------------------------------|

G|-----------------8-8-6-6-----6-6----------------------------------|
D|-------------------------9-9-----9-9-9-9-9-9-9-9-9-9-9-9-9-9-9-9--| 
A|-6-6-6-6-6-6-6-6--------------------------------------------------| 
D|------------------------------------------------------------------|
 
[Outro] (3:38 - end of song)

G|---------------------------------------------------------------------------|
D|---------------------------------------------------------------------------|
A|---------------------------------------------------------------------------|
D|-9--9--9--9--11-11-6--6--6--6--6-6-9--9--9--9--11-11-6--6--6--6--6-6-------|

G|---------------9/11-11-9-9-8-8-9-9---------------8/9-9-8-8-6-6-8-8--|
D|--------------------------------------------------------------------|
A|--------------------------------------------------------------------|
D|-9-9-9-9-9-9-9---------------------6-6-6-6-6-6-6--------------------|

G|---------------9/11-11-9-9-8-8-9-9---------------8/9-9-8-8-6-6-8-8-----|
D|-------------------------------------------------------------------9~--|
A|-----------------------------------------------------------------------|
D|-9-9-9-9-9-9-9---------------------6-6-6-6-6-6-6-----------------------| 

************************************
| x   Rest
| /   Slide up
| \   Slide down
| ~   Let note ring out
************************************
Suggest correction
Give kudos to tab author, rate the tab!
1 2 3 4 5
comments
print report bad tab
guest
You may want to rate the tab now too:
select rating
Wanna post a correction for this tab? Suggest correction