Oops, an error
Loading. Please wait.

Shining Hours Bass Tab

4 views 1 this week
no commentswrite comment
1 2 3 4 5
3 more votes to show rating
add to favorites
launch autoscroll
font size
0
reset
guitar tuner
Autoscroll
slow
fast
+/-
esc
set tempo
stop
Help us to improve Ultimate-Guitar.com Take our survey!
×
Author
Difficulty
Tuning
novice
D A D G B E
About this tab version
This tab is based on the studio album version. Was this info helpful? Yes No
[Intro] (0:00 - 0:21) Bass comes in at (0:10)

G|---------------------------------------------------------------------------|
D|---6-6-----6-6-----6-6-----6/8\6---6-6-----6-6-----6-6-----6/8\6-----------|
A|-4-----4-4-----4-4-----4-4-------4-----4-4-----4-4-----4-4-----------------|
D|---------------------------------------------------------------------------|


[Verse] (0:21 - 1:02) Play twice

G|---------------------------------------------------------------------------|
D|---6-6-----6-6-----6-6-----6/8\6---6-6-----6-6-----6-6-----6/8\6-----------|
A|-4-----4-4-----4-4-----4-4-------4-----4-4-----4-4-----4-4-----------------|
D|---------------------------------------------------------------------------|

G|---------------------------------------------------------------------------|
D|---------------------------6/8\6---6-6-----6-6-----6-6-----6/8/6-----------|
A|---------------------------------4-----4-4-----4-4-----4-4-----------------|
D|-4-4-4-4-4-4-4-4-4-4-4-4-4-------------------------------------------------|


[Chorus] (1:03 - 1:18)

G|---------------------------------------------------------------------------|
D|---------------------------------------------------------------------------|
A|---------------------------------------------------------------------------|
D|-6-6-6-6-6-6-6-6-8-8-8-8-8-8-8-8-4-4-4-4-4-4-4-4-1-1-1-1-1-1-1-1-----------|

G|---------------------------------------------------------------------------|
D|---------------------------------------------------------------------------|
A|---------------------------------------------------------------------------|
D|-6-6-6-6-6-6-6-6-8-8-8-8-8-6-6-6-------------------------------------------|

[Verse] (1:19 - 2:01) Play twice

G|---------------------------------------------------------------------------|
D|---6-6-----6-6-----6-6-----6/8\6---6-6-----6-6-----6-6-----6/8\6-----------|
A|-4-----4-4-----4-4-----4-4-------4-----4-4-----4-4-----4-4-----------------|
D|---------------------------------------------------------------------------|

G|---------------------------------------------------------------------------|
D|---------------------------6/8\6---6-6-----6-6-----6-6-----6/8\6-----------|
A|---------------------------------4-----4-4-----4-4-----4-4-----------------|
D|-4-4-4-4-4-4-4-4-4-4-4-4-4-------------------------------------------------|

[Chorus] (2:01 - 2:17)

G|---------------------------------------------------------------------------|
D|---------------------------------------------------------------------------|
A|---------------------------------------------------------------------------|
D|-6-6-6-6-6-6-6-6-8-8-8-8-8-8-8-8-4-4-4-4-4-4-4-4-1-1-1-1-1-1-1-1-----------|

G|---------------------------------------------------------------------------|
D|---------------------------------------------------------------------------|
A|---------------------------------------------------------------------------|
D|-6-6-6-6-6-6-6-6-8-8-8-8-8-8-8-8-6~----------------------------------------| hold final note into bridge

[Bridge] (2:17 - 2:48). Final note of chorus is held until bass comes again in at (2:38). Repeat four times

G|-----------------|
D|-----------------|
A|-4-4-4-4-4-4-4-4-|
D|-----------------|

[Guitar Solo/Outro] (2:48 - end) 

G|----------------------------------------------------------------|
D|----------------------------------------------------------------|
A|----------------------------------------------------------------|
D|-4-4-4-4-4-4-4-4-4-4-4-4-4-4-4-4-4-4-4-4-4-4-4-4-4-4-4-4-4-4-4-4|

G|-------------------------------------------------------------------------|
D|-------------------------------------------------------------------------|
A|4-4-4-4-4-4-4-4-4-4-4-4-4-4-4-4-4-4-4-4-4-4-4-4-4-4-4-4-4-4-4-4----------| 
D|-------------------------------------------------------------------------| 

G|----------------------------------------------------------------|
D|----------------------------------------------------------------|
A|----------------------------------------------------------------|
D|-4-4-4-4-4-4-4-4-4-4-4-4-4-4-4-4-4-4-4-4-4-4-4-4-4-4-4-4-4-4-4-4|

G|-------------------------------------------------------------------------|
D|-------------------------------------------------------------------------|
A|4-4-4-4-4-4-4-4-4-4-4-4-4-4-4-4-4-4-4-4-4-4-4-4-4-4-4-4-4-4-4-4----------| 
D|-------------------------------------------------------------------------| 

G|----------------------------------------------------------------|
D|----------------------------------------------------------------|
A|----------------------------------------------------------------|
D|-4-4-4-4-4-4-4-4-4-4-4-4-4-4-4-4-4-4-4-4-4-4-4-4-4-4-4-4-4-4-4-4|


G|-------------------------------------------------------------------------|
D|-------------------------------------------------------------------------|
A|9-9-9-9-9-9-9-9-9-9-9-9-9-9-9-9-9-9-9-9-9-9-9-9-9-9-9-9-9-9-9-9\4~~~-----| 
D|-------------------------------------------------------------------------| 
   Let final note ring out until end 


************************************

| /   Slide up
| \   Slide down
| ~   Let note ring out

************************************
Suggest correction
Give kudos to tab author, rate the tab!
1 2 3 4 5
comments
print report bad tab
guest
You may want to rate the tab now too:
select rating
Wanna post a correction for this tab? Suggest correction