Oops, an error
Loading. Please wait.

The Devil And The Liar Bass Tab

16 views 1 this week
no commentswrite comment
1 2 3 4 5
3 more votes to show rating
add to favorites
launch autoscroll
font size
0
reset
guitar tuner
Autoscroll
slow
fast
+/-
esc
set tempo
stop
Help us to improve Ultimate-Guitar.com Take our survey!
×
Author
Difficulty
novice
About this tab version
This tab is based on the studio album version. Was this info helpful? Yes No
[Intro] (0:00 - 1:11) Bass enters at (0:10)

Part A: repeat 10 times (0:10 - 0:51)
G|---------------------------------|
D|---------------------------------|
A|-7-7-7-7-7-7-7---7-7-7-7-7-------|
E|---------------7-----------7-7-9-|

Part B: play once (0:51 - 1:11) 
G|-----------------------------------------------------------------------------------------------------|
D|-7-7-7-7-7-7-7-7-7-7-7-7-7---7-9---------------------------------------------------------------------|
A|---------------------------7-----7-7-7-7-7-------7-7-7-7-7-------7-7-7-7-7-------7-7-7-7-7-----------|
E|-------------------------------------------7-7-9-----------7-7-9-----------7-7-9-----------7-7-9-----|

G|------------------------------------------------------------------|
D|-7-7-7-7-7-7-7-7-7-7-7-7-7---7-9----------------------------------|
A|---------------------------7-----7-7-7-7-7-------7-7-7-7-7--------|
E|-------------------------------------------7-7-9-----------7-7-9--|


[Verse 1] (1:11 - 1:44) Play twice

G|---------------------------------------------------------------------------|
D|---------------------------------------------------------------------------|
A|-7-7-7-7-7-7-7---7-7-7-7-7-------7-7-7-7-7-7-7---7-7-7-7-7-----------------|
E|---------------7-----------7-7-9---------------7-----------7-7-9-----------|

G|---------------------------------------------------------------------------|
D|-7-7-7-7-7-7-7-7-7-7-7-7-7---7-9-------------------------------------------|
A|---------------------------7-----7-7-7-7-7-------7-7-7-7-7-----------------|
E|-------------------------------------------7-7-9-----------7-7-9-----------|


[Chorus] (1:44 - 1:52)

G|---------------------------------------------------------------------------|
D|-9-9-9-9-9-9-9-9-9-9-9-9-9-9-9-9-7-7-7-7-7-7-7-7-7-7-7-7-7-7-7-9-----------|
A|---------------------------------------------------------------------------|
E|---------------------------------------------------------------------------|

[Lead into Verse 2] (1:52 - 2:16)

Part A: Play twice (1:52 - 2:08)
G|---------------------------------------------------------------------------|
D|---------------------------------------------------------------------------|
A|-7-7-7-----11-11-11-7-7-7-----------7-7-7-----11-11-11-7-7-7---------------|
E|-------9-9----------------9-9-9-7-9-------9-9----------------9-9-9-9-9-----|

Part B : play once (2:08 - 2:16)
G|---------------------------------------------------------------------------|
D|-7-7-7-7-7-7-7-7-7-7-7-7-7---7-9-------------------------------------------|
A|---------------------------7-----7-7-7-----11-11-11-7-7-7------------------|
E|---------------------------------------9-9----------------9-9-9-9-9--------|

[Verse 2] (2:16 - 2:49) Play twice

G|---------------------------------------------------------------------------|
D|---------------------------------------------------------------------------|
A|-7-7-7-----11-11-11-7-7-7-----------7-7-7-----11-11-11-7-7-7---------------|
E|-------9-9----------------9-9-9-7-9-------9-9----------------9-9-9-9-9-----|

G|---------------------------------------------------------------------------|
D|-7-7-7-7-7-7-7-7-7-7-7-7-7---7-9-------------------------------------------|
A|---------------------------7-----7-7-7-----11-11-11-7-7-7------------------|
E|---------------------------------------9-9----------------9-9-9-9-9--------|

[Chorus] (2:49 - 3:09)

G|-----------------------------------------------------------------|
D|-9-9-9-9-9-9-9-9-9-9-9-9-9-9-9-9-7-7-7-7-7-7-7-7-7-7-7-7-7-7-7-9-|
A|-----------------------------------------------------------------|
E|-----------------------------------------------------------------|

G|-------------------------------------------------------------------------------------------------|
D|-----------------6-6-6-6-6-6-6-6-7-7-7-7-7-7-7-7-7-7-7-7-7-7-7-9---------------------------------|
A|-7-7-7-7-7-7-7-7---------------------------------------------------------------------------------|
E|-----------------------------------------------------------------7-7-7-7-7-7-7-7-7-7-7-7-7-7-7-9-|


[Outro] (3:09 - end)

Part A: repeat 4 times (3:09 - 3:41)
G|---------------------------------------------------------------------------|
D|---------------------------------------------------------------------------|
A|-7-7-7-----11-11-11-7-7-7-----------7-7-7-----11-11-11-7-7-7---------------|
E|-------9-9----------------9-9-9-7-9-------9-9----------------9-9-9-9-9-----|

Part B: play once (3:41 - 3:50)
G|---------------------------------------------------------------------------|
D|---------------------------------------------------------------------------|
A|-7-7-7-----11-11-11-7-7-7-----------7-7-7-----11-11-11-7-7-7---------9-----|
E|-------9-9----------------9-9-9-7-9-------9-9----------------9-9-9-9-------|

Part C: play once (3:50 - 3:58)
G|---------------------------------------------------------------------------|
D|---------------------------------------------------------------------------|
A|-7-7-7-----11-11-11-7-7-7-----------7-7-7-----11-11-11-7-7-7---------------|
E|-------9-9----------------9-9-9-7-9-------9-9----------------9-9-9-9-9-----|

Part D: play once (3:58 - 4:06)
G|---------------------------------------------------------------------------|
D|---------------------------------------------------------------------------|
A|-7-7-7-----11-11-11-7-7-7-----------7-7-7-----11-11-11-7-7-7---------9-----|
E|-------9-9----------------9-9-9-7-9-------9-9----------------9-9-9-9-------|

Part E: play once (4:06 - 4:14)
G|---------------------------------------------------------------------------|
D|---------------------------------------------------------------------------|
A|-7-7-7-----11-11-11-7-7-7-----------7-7-7-----11-11-11-7-7-7---------------|
E|-------9-9----------------9-9-9-7-9-------9-9----------------9-9-9-9-9-----|

Part F: play once (4:14 - end) 
G|---------------------------------------------------------------------------|
D|---------------------------------------------------------------------------|
A|-7-7-7-----11-11-11-7-7-7-----------7-7-7-----11-11-11-7-7-7---------9-----|
E|-------9-9----------------9-9-9-7-9-------9-9----------------9-9-9-9-------|

G|---------------------------------------------------------------------------|
D|---------------------------------------------------------------------------|
A|-7-7-7-----11-11-11-7-7-7-----------7-7-7-----11-11-11-7-7-7---------9-7~--|
E|-------9-9----------------9-9-9-7-9-------9-9----------------9-9-9-7-------|

**************************

| ~ Let note right out

**************************
Suggest correction
Give kudos to tab author, rate the tab!
1 2 3 4 5
comments
print report bad tab
guest
You may want to rate the tab now too:
select rating
Wanna post a correction for this tab? Suggest correction