Oops, an error
Loading. Please wait.

Brothers - Full Metal Alchemist Tab

292 views 33 this week
no commentswrite comment
1 2 3 4 5
3 more votes to show rating
add to favorites
launch autoscroll
font size
0
reset
how to read this tab
guitar tuner
Autoscroll
slow
fast
+/-
esc
set tempo
stop
Help us to improve Ultimate-Guitar.com Take our survey!
×
Author
Difficulty
intermediate
[Intro]

    ^
e|--1--0--1----0---------------------------------------------------------------|         
B|--3-------------3--1p0----------------1--------------------------------------|    
G|--2----------0---------2-----------0-----2-----------------------------------|       
D|--0-----------------------0--3----------------0--------0------2------0-------|          No forget
A|--0----------3---------1--------3-----------0-------0-------3------0---------|         3 october
E|-----------------------------------------0-------0--------0------0-----------|

e|-----1---0h1---3------5--1-----0-----------------1---0h1---3-----8-----------|
B|--3----------------0--------------3----------3-------------------------------|
G|-----2-----------------------2-------------------2------------0--------------|
D|-----------------------------------------0-----------------------------------|
A|--------------------------------------0--------------------3-----------------|
E|-0-------------0---------0--------0----------0-------------------------------|

e|--5-----3--5------------1---0h1---3-----5--1-----0-----------------------------|
B|----------------2---3----------------0--------------3------3---1------3--------|
G|-----5--------2---------2---------------------2---------2----------0-----------|
D|-------------------------------------------------------------------------------|
A|-----------0---------------------------------------------------3---------------|
E|--3-----------------0-------------0--------0--------0--------------------------|

e|--0----1--0--------------------------1---0h1---3-----5--1-----0---------------|
B|--------------3------------------3----------------0--------------3------------|
G|-----0-------------------------------2---------------------2------------------|
D|----------------------------0------------------------------------------0------|
A|--3--------------0--------0-----------------------------------------0---------|
E|--------------0-----3p2-0--------0-------------0--------0--------0------------|

e|----1--0h1---3-----8---5-----3---5-----------1--0h1--3------5--1-------0-----|
B|-3------------------------------------2--3--------------0------------------3--|
G|----2-----------0---------5---------2--------2---------------------2---------|
D|-----------------------------------------------------------------------------|
A|-------------3-------------------0-------------------------------------------|
E|-0---------------------3-----------------0-----------0---------0-----------0--|

e|------------------0-----1--0------------------------5----3-5--3---------5-----8--|
B|-----3--1-----3---------------3-------------------------------------3-----------|
G|--2--------0---------0--------------------------------5----------4---------5-----|
D|----------------------------------------------0----------------------------------|
A|--------3---------3---------------0---------0----------------------------------|
E|------------------------------0------3p2--0---------3---------3---------3--------|

e|-3---------5---3--5--3---------0-1-1----3--0-----------5-----3-5---3--------------|
B|-------3--------------------3-------------------1p0----------------------3-------|
G|----4--------5----------4-------------3-------0-----------5-----------4----------|
D|-------------------------------------------------------------------------------|
A|-------------------------------------------3-------------------------------------|
E|-3---------3---------3-------------1-------------------3-----------3------------|

e|-5----8---3---------5-----5-3--7-----3--5----------------------10------10---8----------|
B|----------------3-----------------0----------0---0--2-----10---------------------8-----|
G|---5---------4---------5-------0-----------2---2----2--------------10----------0-------|
D|--------------------3---------------------------------------------------------------|
A|----------------------------------------0--------------0-------8------------7-----------|
E|-3--------3------------------------------------------------------------------------|

e|--5------------5----10------12--10--8--------5-----------5--3-----5--3--------0-------|
B|------------------------------------------8-----------------------------6-----------|
G|------------------------10-------------0-----------------------------------0--------|
D|-------3------------------------------------------3------------0---------------------|
A|-----3------3-------8---------------7-----------3-----3-----1-----------3------------|
E|--3-------3----------------------------------3------3-------------------------------|

e|-----------------5--3--3--5--------0------------------------5-------7----5--3-----3--5-------|
G|--3--------------------------6--------3-----------------3--------3----0--------6-------------|
B|--------2-----------------------0---------------------2--------2----------------------------|
D|-----3--------3------------------------------0--2--3--------0-------0----------0--------------|
A|--1--------1--------1---------3------------0---------------------------------------------------|
E|--------------------------------------0-----------------------------------------------------|

                                                    ^                 ^ 
e|--0-----------5--5--7-----5--3--5-----------------1--0-----0----------------------0---------------|
G|-------1--3------------0--------------------------1-----3--------1-------------3--------------|
B|-----0--------------0--------------2--2--4--2--0--2-----------0-----2-------------0----------------|
D|----------0---------------------0--------0--------------------------3--2-0--2----------------|
A|--3-----------------------------------------------1--------3------------------------------|
E|--------------------------------------------------------------------0-------0-----------|

e|-1--0--1--3-----0-------------------------------------|
G|-------------------3----------------------------------|
B|-2-----------0----------------------------------------|
D|------------------------------------------------------|                                                   
A|-1--------3---------------0-------------------------------------------------------------|
E|-------------------0--0h2----3p2-0-----------------------------------------------------------|

e|-----1---0h1---3------5--1-----0-----------------1---0h1---3-----8-----------|
B|--3----------------0--------------3----------3-------------------------------|
G|-----2-----------------------2-------------------2------------0--------------|
D|-----------------------------------------0-----------------------------------|
A|--------------------------------------0--------------------3-----------------|
E|-0-------------0---------0--------0----------0-------------------------------|

e|--5-----3--5------------1---0h1---3-----5--1-----0-----------------------------|
B|----------------2---3----------------0--------------3------3---1------3--------|
G|-----5--------2---------2---------------------2---------2----------0-----------|
D|-------------------------------------------------------------------------------|
A|-----------0---------------------------------------------------3---------------|
E|--3-----------------0-------------0--------0--------0--------------------------|

e|--0----1--0--------------------------1---0h1---3-----5--1-----0---------------|
B|--------------3------------------3----------------0--------------3------------|
G|-----0-------------------------------2---------------------2------------------|
D|----------------------------0------------------------------------------0------|
A|--3--------------0--------0-----------------------------------------0---------|
E|--------------0-----3p2-0--------0-------------0--------0--------0------------|

e|----1--0h1---3-----8---5-----3---5-----------1--0h1--3------5--1-------0-----|
B|-3------------------------------------2--3--------------0------------------3--|
G|----2-----------0---------5---------2--------2---------------------2---------|
D|-----------------------------------------------------------------------------|
A|-------------3-------------------0-------------------------------------------|
E|-0---------------------3-----------------0-----------0---------0-----------0--|

e|------------------0-----1--0------------------------5----3-5--3---------5-----8--|
B|-----3--1-----3---------------3-------------------------------------3-----------|
G|--2--------0---------0--------------------------------5----------4---------5-----|
D|----------------------------------------------0----------------------------------|
A|--------3---------3---------------0---------0----------------------------------|
E|------------------------------0------3p2--0---------3---------3---------3--------|

e|-3---------5---3--5--3---------0-1-1----3--0-----------5-----3-5---3--------------|
B|-------3--------------------3-------------------1p0----------------------3-------|
G|----4--------5----------4-------------3-------0-----------5-----------4----------|
D|-------------------------------------------------------------------------------|
A|-------------------------------------------3-------------------------------------|
E|-3---------3---------3-------------1-------------------3-----------3------------|

e|-5----8---3---------5-----5-3--7-----3--5----------------------10------10---8----------|
B|----------------3-----------------0----------0---0--2-----10---------------------8-----|
G|---5---------4---------5-------0-----------2---2----2--------------10----------0-------|
D|--------------------3---------------------------------------------------------------|
A|----------------------------------------0--------------0-------8------------7-----------|
E|-3--------3------------------------------------------------------------------------|

e|--5------------5----10------12--10--8--------5-----------5--3-----5--3--------0-------|
B|------------------------------------------8-----------------------------6-----------|
G|------------------------10-------------0-----------------------------------0--------|
D|-------3------------------------------------------3------------0---------------------|
A|-----3------3-------8---------------7-----------3-----3-----1-----------3------------|
E|--3-------3----------------------------------3------3-------------------------------|





| x   Dead note
| g   Grace note
| (n) Ghost note
| h   Hammer-on
| p   Pull-off
| r   Release
| >   Accented note
| t   Tapping
| b   Bend
| br  Bend release
| pb  Pre-bend
| pbr Pre-bend release
| /   Slide up
| \   Slide down
| ~   Vibrato
| s   Slap
| P   Pop
| PM  Palm mute
| TR  Trill
| N   Tremolo

************************************
Suggest correction
Give kudos to tab author, rate the tab!
1 2 3 4 5
comments
print report bad tab
guest
You may want to rate the tab now too:
select rating
Wanna post a correction for this tab? Suggest correction