Oops, an error
Loading. Please wait.

Dearly Beloved Tab

7,263 views 30 this week
no commentswrite comment
1 2 3 4 5
3 more votes to show rating
add to favorites
launch autoscroll
font size
0
reset
how to read this tab
guitar tuner
Autoscroll
slow
fast
+/-
esc
set tempo
stop
Help us to improve Ultimate-Guitar.com Take our survey!
×
Author
Difficulty
intermediate
Tab source: http://www.youtube.com/watch?v=foRZJ9wHs0Q
Song link: http://www.youtube.com/watch?v=ZMKoaBc385A

I tried asking the guy if he could send me the tabs but it's been a year with
no reply.. So I typed it all out on notepad (took me an hour cause of
mistakes) and gave him credit with a link. I'm sure that's good enough :]

e|0---------------------------------------------0-----2-0-------2|
B|----0---------------------------------------0-----0---------0--|
G|--------2---------------------------------0-----0---------0----|
D|------------4---2---------------------2-4----------------------|
A|--------------------2---0-----------2--------------------------|
E|--0---0---0---0---0---0---0-2-0-2-3-----------0-------0--------|

e|0-------0-----------2---0-----------2---3---2---7---5h7p5------|
B|--0---------0---------------0----------------------------------|
G|----2-----0---0-2-----2---0---0-2-----2---0---0---0------------|
D|------4-----------4---------------4----------------------------|
A|----0----------------------------------------------------------|
E|0-------0-------0-------0-------0-------0-------0--------------|

e|3---2---0-------0-----------2---0-----------2---3---2---7---5--|
B|------------3-------0---------------0--------------------------|
G|--0---0---0---0---0---0-2-----2---0---0-2-----2---0---0---0---0|
D|--------------------------4-----0---------4--------------------|
A|----------------3-------0---------------0-------2--------------|
E|0-------0-----------------------------------------------3------|

e|3---2---0-------0-----------2---0----------2---3---2---7---5---|
B|------------3---0---0-------3---0---0------3---5---3---8---7---|
G|--0---0---0---0-----0---2-----------0---2----------------------|
D|------------------------4---------------4----------------------|
A|---------------------------------------------------------------|
E|0-------0---------0---0---0---0---0---0---0---0---0---0---0---0|

e|3---2--0-------0-----------2---0---7-------3---7---5---7---8-10-7-|
B|5---3--0---3-------0---------2-----0---------3-----0--------------|
G|-----------4-----0---0-2---------0---0-----------0---0---0--------|
D|-------------------------0-4---0---------0-5----------------------|
A|---------------3-------0---------------0-------------------0------|
E|--0---0--0---0---------------------------------3-------3--------3-|

e|5-7---0--------0-----------2---0-----------2---3---2---7---5---3--|
B|----------3--------0---------------0--------------------------------|
G|----0---0---0----0---0-2-----2---0---0-2-----2---0---0---0---0------|
D|-------------------------4-----0---------4--------------------------|
A|---------------3-------0---------------0-------2--------------------|
E|--3----------------------------------------------------3-------0----|

e|--2---0-------0-2---0-2---0------------------------------------|
B|----------3---0---3-0---3-----0--------------------------------|
G|0---0---0---0-0-----2-------------2----------------------------|
D|--------------------0-----------------4---2--------------------|
A|--------------3-0-----2-------------------2--------------------|
E|------0---------------------0---0---0---0-0--------------------|


| /  slide up
| \  slide down
| h  hammer-on
| p  pull-off
| ~  vibrato
| +  harmonic
| x  Mute note
Suggest correction
Give kudos to tab author, rate the tab!
1 2 3 4 5
comments
print report bad tab
guest
You may want to rate the tab now too:
select rating
Wanna post a correction for this tab? Suggest correction