Oops, an error
Loading. Please wait.

Grief And Sorrow Tab

51,099 views 174 this week
no commentswrite comment
1 2 3 4 5
x 11
add to favorites
launch autoscroll
font size
0
reset
how to read this tab
guitar tuner
Autoscroll
slow
fast
+/-
esc
set tempo
stop
Help us to improve Ultimate-Guitar.com Take our survey!
×
Author
Tuning
D A D G B E
From Naruto OST
Originally composed by Toshiro Masuda
Arranged for guitar by Lonlonjp

    ^              ^                           ^   ^                   ^
E|--5--------------5h7---5-3-0-----------0--3--0---0-3--------------------------------|
B|--5--------0-----5------------------3--------3---0----3----------3---1--3p1---------|
G|--5-----------5--5---------------0-----------0---2---------------2---2-------2------|
D|--------7---------------------2-----------------------------2--3-3---3--------------|
A|--0--7---------------------3-----------------------------0---------------------3----|
D|------------------------------------------------------0----------------------3------|
             ^    ^   ^               ^                        ^   ^
E|------5h8--7----3---5---------------5h7--5-3-0-----------10--7---0-3----------------|
B|----5------0----0---5--------0------5------------------8-----0---0----3-------------|
G|--5--------0----2---5-----------5---5-----------0--7h9-------0---2------------------|
D|--------------------------7-------------------------------------------------2--3----|
A|--------------------0--7---------------------3---------------------------0----------|
D|----------------------------------------------------------------------0-------------|
       ^                    ^                       ^
E|--------------------------5--0--------------1-----5---3-----------0----3------------|
B|--3--1---3p1-----------0--8-----------1-----1-----6---------0-----0----0------------|
G|--2--2--------2-----2-----5-----------2-----------5---------------2----2------------|
D|--3--------------2---------------------------------------0-----0----0----0----------|
A|--------------0--------------------0-----0-----0------------------------------------|
D|-----3--------------------------3---------------------5-----------------------------|

    ^                                                                ^
E|--5--------------------0--------------------3-----------------1-----5---3-----------|
B|--5--------0-----0--------------3-----5-----5-----------1-----1-----6------------0--|
G|--5-----------5-----5-----------4-----5-----------------2-----2-----5---------0-----|
D|--------7--------------------0-----0-----0-----0---------------------------0--------|
A|--0--7--------0-----7--------------------------------0-----0-----0------------------|
D|--------------------------5-----------------------3---------------------5-----------|

                 ^                ^      ^            ^
E|--0-----3------3----2-----------5------4------------5-----------0--------0----------|
B|--0-----0------3----3-----------8------3------------5--------0-----------------0----|
G|--2-----2------2----2-----------7------4------------5-----------------------7-------|
D|-----0---------2----------4---------------------2---------7-----------7-------------|
A|-----------0---0-------0-----0--0--0------0--2------0--7-----------7----------------|
D|---------------0-----------------------2------------------------------------5-------|

E|--7-----8-----10-----12-------------10-----8-------------4s5----------3--5p3--------|
B|-----0-----0------0------10-----10------------7--10--0---5s6--0-----0---------------|
G|--0-----0------0-------------9----------7--9---------0---4s5--0---0-----------------|
D|-------------------------------------7-----------10--0----------0-----0-------------|
A|----------------------9---------------------------8------0--------------------------|
D|------------------------------------------------------------------------------------|
    ^               ^
E|--0---------------0------0-----7-----10--------7--------5-----------12--------------|
B|--1---------------0---------0-----0------0-----------8------------------------------|
G|------2-----2---------7--------0------0-----0-----0--------------2-------------9----|
D|---------2----------------------------------------------------4-------------9-------|
A|--0------------3--0----------------------------------------0------------11----------|
D|-------------------------5------------------------------4------------9--------------|
     ^   ^         ^                      ^               ^
E|--10---8---10p8--5----------------------5---------------5h7---5-3-0-----------0-----|
B|--10-------------5----------------------5--------0------5------------------3--------|
G|--10---9---------5----------------------5------------5--5---------------0-----------|
D|-------7---------------------NH7--------------7----------------------2--------------|
A|-----------------0----------------------0--7----------------------3-----------------|
D|--9---------------------------------------------------------------------------------|
           ^                    ^                       ^              ^
E|---------0--3------------------------------------5h8--7--3-----------5--------------|
B|--1---3--0-----3-----------3--1---3p1----------5------0--------0--3--5--------0-----|
G|---------2-----------------2--2--------2-----5--------0--0--2-----2--5-----------5--|
D|---------------------2--3-----3--------------------------------------------7--------|
A|------------------0-----------------------3--------------------------0--7-----------|
D|---------------0-----------------------3--------------------------------------------|
    ^                                                          ^
E|--5h7---5-3-0-----------8--NH12--------0--3-----------------------------------------|
B|--5-------------------8----NH12--------------3-----------3---1---3p1----------------|
G|--5------------0--7h9------NH12-----2--------------------2---2---------2------------|
D|---------------------------------------------------2--3--3--------------------------|
A|------------3-----------------------------------0----------------------0------------|
D|---------------------------------------------0---------------3----------------------|
            ^   ^   ^    ^     ^   ^     ^   ^     ^             ^    ^     ^

E|-----------7---5---5----5-----5---5-----3---3-----7--------5-3--5----5-----5--------|
B|-----0-----5---5---5----5-----5---5-----3---3-----5------------------0-----0--------|
G|--------5--5---5---4----4-----4---4-----5---5-----7-------------5----5-----5--------|
D|--2---------------------------------------------------------------------------------|
A|---------------------------0---------0---------0-------0--------0-------0-----------|
D|---------------------------------------------------------------(0)------------------|
    ^          ^     ^       ^    ^     ^             ^                 ^   ^
E|--5----------3-----3----------------------------0---0-----3-----7-----8---8---------|
B|--0------3---3-----3-----8s3----3-----3---1--3--0---0-----5-----8-----6---6---------|
G|--5------5---5-----5-----9s4----4-----4---2---------2-----4-----7-----5---5---------|
D|--------------------------------5-----5---------------------------------------------|
A|-----0----------0-----0----0-------0------0-----0------0-----0-----0---------0------|
D|------------------------------------------------------------------------------------|
             ^       ^           ^              ^
E|--8---8----8-------7--------4--5--------------5h7---5-3-0-----------0---0--3--------|
B|--6---6----6---------0---------5--------0-----5---------------1--3------------3-----|
G|--5---5----7------------7------5-----------5--5------------0--------0---------------|
D|-----------8-------------------------7------------------------2--3------------------|
A|-------------------------------0--7---------------------3---------------3--------0--|
D|-----------6-------6----------------------------------------------------------0-----|
             ^                                    ^            ^
E|------------------------------------------------5------------5h7---5-3--0-----------|
B|--0--1--3--1---3p1-----------------0--------0---5------0-----5----------------------|
G|--0--------2-----------2--------2--------0------5---------5--5--------------0-------|
D|-----2--3--3-----------------3-----------------------7------------------------------|
A|---------------------------3----------5---------0-7---------------------3-----------|
D|-----------------------3-----------5------------------------------------------------|
                                                                     ^

E|--------0--0--3--------------------------------------0-----5--0----15---------------|
B|--1--3-----------3-----------3--1---3p1--------1-------------------13---------------|
G|--------0-----------------------2--------2--------2-----5----------14---------------|
D|--2--3-----------------2--3--3--------------2---------------------------------------|
A|-----------3--------0--------------------0--------------------------0---------------|
D|-----------------0--------------3---------------------------------------------------|



************************************

| (n)  Ghost note
| h    Hammer-on
| p    Pull-off
| s    slide

************************************
Suggest correction
comments
print report bad tab
guest
You may want to rate the tab now too:
select rating
Wanna post a correction for this tab? Suggest correction