Oops, an error
Loading. Please wait.

Light Me Up Tab

1,446 views 1 this week
no commentswrite comment
1 2 3 4 5
3 more votes to show rating
add to favorites
launch autoscroll
font size
0
reset
how to read this tab
guitar tuner
Autoscroll
slow
fast
+/-
esc
set tempo
stop
Help us to improve Ultimate-Guitar.com Take our survey!
×
-------------------------------------------------------------------------------
                     Light Me Up (Radio Edit) - Lonsdale Boys Club
-------------------------------------------------------------------------------
http://www.lonsdaleboysclub.com/

Tabbed by: JB Rocky Horror

Tuning:Standard


Verse 1:

Im on a roll, Im on fire,

Champagne and burnt out tires,

Go, come on Sire

Crew born and broken liars,

Roll...
                                                   
e|---xx--4-x-4-xx-----------------------------9----9--9--9--9----------------|
B|---xx--5-x-5-xx--7---7-7-7-7--xx--9-x-9-x---10---10-10-10-10---------------|
G|---xx--6-x-6-xx--7---7-7-7-7--xx--9-x-9-x---9----11-11-11-11---------------| X 4
D|---xx--6-x-6-xx--7---7-7-7-7--xx--9-x-9-x---11---11-11-11-11---------------|
A|---xx--4-x-4-xx--5---5-5-5-5--xx--7-x-7-x---9------------------------------|
E|---xx--4-x-4-xx-----------------------------9------------------------------|

Pre Chorus 1:
                        
e|-----------------9----9--9--9--9-------------------------------------------|
B|---xx--9-x-9-x---10---10-10-10-10------------------------------------------|
G|---xx--9-x-9-x---9----11-11-11-11------------------------------------------| X 2
D|---xx--9-x-9-x---11---11-11-11-11------------------------------------------|
A|---xx--7-x-7-x---9---------------------------------------------------------|
E|-----------------9---------------------------------------------------------|

Chorus 1: = Verse 1.

Verse 2:

e|---------------------------------------------------------------------------|
B|----------------------------------------------9-\--------------------------|
G|----------------------------------------------9-\--------------------------|
D|--6-x-6-x-7--xx--9-x-9-x-11-xxxx--6-x-6-x-7--------9-x-9-x-11--------------|
A|--4-x-4-x-5--xx--7-x-7-x-9--xxxx--4-x-4-x-5--------7-x-7-x-9----9--9p7-----|
E|-----------------------------------------------------------------------9---|

e|--4-x-4-x----------------------9---9--9--9--9------------------------------|
B|--5-x-5-x--7--7-7-x---9-x-9-x--10--10-10-10-10-----------------------------|
G|--6-x-6-x--7--7-7-x---9-x-9-x--9---11-11-11-11-----------------------------|
D|--6-x-6-x--7--7-7-x---9-x-9-x--11--11-11-11-11-----------------------------|
A|--4-x-4-x--5--5-5-x---7-x-7-x--9-------------------------------------------|
E|-------------------------------x-------------------------------------------|

e|--4-x-4-x----------------------9-------------------------------------------|
B|--5-x-5-x--7----9\----9-x-9-x--10------------------------------------------|
G|--6-x-6-x--7----9\----9-x-9-x--9-------------------------------------------|
D|--6-x-6-x--7----------9-x-9-x--11------------------------------------------|
A|--4-x-4-x--5----------7-x-7-x--9-----9--9p7--------------------------------|
E|-------------------------------x------------9------------------------------|

Then:  Verse 1 x3 - Pre Chorus 1 - Chorus 1  

Bridge: x2, then again with more overdrive x2.

e|---------------------------------------------------------------------------|
B|---------------------------------------------------------------------------|
G|---------------------------------------------------------------------------|
D|--6-6--7-7-------9-9--11-11-\----------------------------------------------|
A|--4-4--5-5--7-7--7-7--9--9--\----------------------------------------------|
E|------------5-5------------------------------------------------------------|

Then:  Pre Chorus 1

Pre Chorus 2: 

e|-----------------9----9--9--9--9---11-11-11-11-11-11-11-11-----------------|
B|---xx--9-x-9-x---10---10-10-10-10--12-12-12-12-12-12-12-12-----------------|
G|---xx--9-x-9-x---9----11-11-11-11--13-13-13-13-13-13-13-13-----------------| 
D|---xx--9-x-9-x---11---11-11-11-11--13-13-13-13-13-13-13-13-----------------|
A|---xx--7-x-7-x---9---------------------------------------------------------|
E|-----------------9---------------------------------------------------------|


Outro / Chorus 2:
                                          
e|---6-x-6-xx--------------------------------11--11-11-11-11-----------------|
B|---7-x-7-xx---9--9-9-9-9--xx---11-x-11-x---12--12-12-12-12-----------------|
G|---8-x-8-xx---9--9-9-9-9--xx---11-x-11-x---11--13-13-13-13-----------------| X 8
D|---8-x-8-xx---9--9-9-9-9--xx---11-x-11-x---13--13-13-13-13-----------------|
A|---6-x-6-xx---7--7-7-7-7--xx---9--x-9--x---11------------------------------|
E|---6-x-6-xx--------------------------------11------------------------------|


Enjoy & note, this is for the radio edit version. 

All comments and ratings are appreciated.

************************************
| /   slide up
| \   slide down
| h   hammer-on
| p   pull-off
| +   harmonic
| x   Mute note
************************************
Suggest correction
Give kudos to tab author, rate the tab!
1 2 3 4 5
comments
print report bad tab
guest
You may want to rate the tab now too:
select rating
Wanna post a correction for this tab? Suggest correction