Oops, an error
Loading. Please wait.

Swingset Chain tab

version 2
version 2

Whole song

by Loquat
43 views 1 this week
no commentswrite comment
1 2 3 4 5
3 more votes to show rating
add to favorites
×
Save as Personal and add changes to this tab that will be seen only by you. Learn more ›
×
You can save this tab as Personal to edit and correct it or add notes. All changes will be seen only by you. Learn more »
launch autoscroll
font size
0
reset
how to read this tab
guitar tuner
edit
Autoscroll
slow
fast
+/-
esc
set tempo
stop
Author
Difficulty
Swingset Chain 
Loquat

 1               2               3               4
e|-------0-------|---------------|---------------|---------------|
B|---------------|---------------|---------------|---------------|
G|-7---7-----7---|-6---6-7---6---|-4---4-4---4---|-4---4-4---6---|
D|---0-----0---0-|---0-----0---0-|---0-----0---0-|---0-----0---0-|
A|---------------|---------------|---------------|---------------|
E|-7---------7---|-5---------5---|-3-----3-------|-3-----3---5---|

V1  There's a playground that we used to run on the penny-drop that broke her arm
V2  If you want to know what that was like I'll tell you first, it was way too quiet
V3  There's a rooftop deck where we still hang out A couple of bars where we're not allowed
 
 5               6               7               8             
e|-------0-------|---------------|-------0-------|---------------|
B|---------------|---------------|---------------|---------------|
G|-7---7-----7---|-6---6-7---6---|-4---4-----4---|-4---4-4---6---|
D|---0-----0---0-|---0-----0---0-|---0-----0---0-|---0-----0---0-|
A|---------------|---------------|---------------|---------------|
E|-7---------7---|-5---------5---|-3-----3-------|-3-----3---5---|

V1  The monkey bars that you fell from The swingset chain that stuck with my tongue
V2  It rained a hundred nineteen days of the year I spent my time falling down the stairs
V3  The roller-skates that threw you on your face the park on the hill which was our only space

 9              10              11              12
e|-------7-------|-------7-------|-------5-------|---------------|
B|---------------|---------------|---------------|---------------|
G|-7---7-----7---|-6---6----6----|-4---4-----4---|-4---4-4---6---|
D|---0-----0---0-|---0-----0---0-|---0-----0---0-|---0-----0---0-|
A|---------------|---------------|---------------|---------------|
E|-7---------7---|-5---------5---|-3-----3-------|-3-----3---5---|

V1  It's thirty below and we're far gone If you plant yourself here I wouldn't miss you for long
V2  I know I can't tie you to a leash But something tells me you'd go further than Greece
V3  The fog is fast and it rolls right in About the time I struck my first fifth of gin

13              14              15              16
e|---------------|---------------|---------------|-----------------|
B|-------7-------|-------7-------|-------5-------|-----------------|
G|-7---7-----7---|-6---6-----6---|-4---4-----4---|-4---4-4---6---7-|
D|---0-----0---0-|---0-----0---0-|---0-----0---0-|---0-----0---0---|
A|---------------|---------------|---------------|-----------------|
E|-7---------7---|-5---------5---|-3-----3-------|-3-----3---5---7-|

V1  But then comes the day when you leave town I'm back to the way I was when you weren't around
V2  And then I'll have to figure out what to do I'm kind of afraid I'm co-dependent on you
V3  I really don't mean to complain too much But this is turning me into quite the lush

[Chorus 1]
Bm                                           A                           G
I'm freaking out that we've started breaking down Before momentum picked up 
                        A      Bm                                                 A
Now all these doors are locked The trees trick you 'cause they're always standing still
                          G                             A 
If time was really racing by  You could see it when you drive

[Bridge]
Bm                           A                         G                   A
You're a dandelion seed That flies through the air And lands randomly Then disappears

[Chorus 2]
Bm                                         A              G                                A
I'm freaking out that we're running out of time But to do what? Should I stop and think of that?
Bm                                         A                       G                                  A  Bm
Is there something I could do to slow it   down? Live in a day for once Instead of watch it screaming by-ee

*******************
  Bm   A   G   A
e|-7-|-5-|-3-|-5-|
B|-7-|-5-|-3-|-5-|
G|-7-|-6-|-4-|-6-|
D|-9-|-7-|-5-|-7-|
A|-9-|-7-|-5-|-7-|
E|-7-|-5-|-3-|-5-|

*******************
Suggest correction
Creating personal tab
Creating personal tab
You can edit any tab online and save it as your Personal.

You can edit, replace or remove any tab part or add personal notes – all changes will be seen only by you.

Personal tabs can be accessed anytime from any device, even offline.
Learn more »
Give kudos to tab author, rate the tab!
1 2 3 4 5
comments
print report bad tab
guest
You may want to rate the tab now too:
select rating
Wanna post a correction for this tab? Suggest correction