Oops, an error
Loading. Please wait.

Typhus Herald Of Nurgle Tab

87 views 1 this week
no commentswrite comment
1 2 3 4 5
2 more votes to show rating
add to favorites
launch autoscroll
font size
0
reset
how to read this tab
guitar tuner
Autoscroll
slow
fast
+/-
esc
set tempo
stop
Help us to improve Ultimate-Guitar.com Take our survey!
×
Author
Difficulty
novice
-------------------------------------------------------------------------------
                             TYPHUS, HERALD OF NURGLE - Lord Andras
-------------------------------------------------------------------------------
Tabbed by: Lord Andras
E-mail: guilazmj@aol.com

http://www.metal-archives.com/bands/Lord_Andras/3540345705

Tuning: E Standard


Tremolo picking used throughout verses/ chorus. Both guitars play same chorus/ verse riffs.


Intro (Chorus Riff)

e|---------------------------------------------------------------------------|
B|---------------------------------------------------------------------------|
G|---------------------------------------------------------------------------|
D|---------------------------------------------------------------------------|    x4
A|---------3333333322222222----------------333333332222222255555555----------|
E|-11114444----------------4444000011114444----------------------------------|


Verse riff

e|---------------------------------------|
B|---------------------------------------|
G|---------------------------------------|       x4
D|---------------------------------------|      
A|------------------------33332222-------| 
E|111100001111444411110000---------------|



REPEAT CHORUS RIFF X2



REPEAT VERSE RIFF X4



Bridge riff part 1

e|1-------------3------------4-----------6---------------|
B|1-------------3------------4-----------6---------------|
G|-------------------------------------------------------|
D|-------------------------------------------------------|   GUITAR 1
A|-------------------------------------------------------|
E|-------------------------------------------------------|             x2

e|-------------------------------------------------------|
B|-------------------------------------------------------|
G|-------------------------------------------------------|   GUITAR 2
D|-------------------------------------------------------|
A|-------------------------------------------------------|
E|-------------------------------------------------------|

Bridge riff part 2

e|1-------------3------------4-----------6---------------|
B|1-------------3------------4-----------6---------------|
G|-------------------------------------------------------|
D|-------------------------------------------------------|   GUITAR 1
A|-------------------------------------------------------|
E|-------------------------------------------------------|             x4

e|1111111111111133333333333334444444444446666666666666666|
B|-------------------------------------------------------|
G|-------------------------------------------------------|   GUITAR 2
D|-------------------------------------------------------|
A|-------------------------------------------------------|
E|-------------------------------------------------------|




CHORUS RIFF X4



************************************

| /   slide up
| \   slide down
| h   hammer-on
| p   pull-off
| ~   vibrato
| +   harmonic
| x   Mute note
| b   Bend
| pb  Pre-bend
| br  Bend release
| pbr Pre-bend release
| brb Bend release bend

************************************
Suggest correction
Give kudos to tab author, rate the tab!
1 2 3 4 5
comments
print report bad tab
guest
You may want to rate the tab now too:
select rating
Wanna post a correction for this tab? Suggest correction