Oops, an error
Loading. Please wait.

Involuntary Vaginal Vermin Slut Tab

303 views 1 this week
no commentswrite comment
1 2 3 4 5
please rate
add to favorites
launch autoscroll
font size
0
reset
how to read this tab
guitar tuner
Autoscroll
slow
fast
+/-
esc
set tempo
stop
Help us to improve Ultimate-Guitar.com Take our survey!
×
Author
Band:  Lord Gore
Album: The Autophagous Orgy
Song:  Involuntary Vaginal Vermin Slut

Copyright (c)  Razorback records 2002
Version 1.0 - 10/16/05

Transcribed By: Haemorrhage,Jorge
Email: xlos_crudos4x@yahoo.com Email me if you want any other songs
by LG.I think i have them all done from the Auto Orgy I'm Just too lazy to
type and submit them all =/


.  - palm mute           /  - slide up to
\  - slide down to       ~  - vibrato
h  - hammer on           b  - Bend
p  - pull off            Suffixes for bend
t  - tap                 f  - full bend    h - half bend
ph - pinched harmonic    q  - quarter bend t - tap bend
*  - see comment         ^  - Hold bend    r release bend
x  - Stuccatto           ~  - vibrato bend
,  - slight palm mute    () - ghost note, sustained note
"  - tremolo note        <> - Trill

Tuning 2 whole steps down to B

Riff 1
|-----------------------------------------------------|
|-----------------------------------------------------|
|-----------------------------------------------------|
|-----------------------x-x------------------9"-8"-7*-|x1
|---------6---------x-x-x-x-----------8"-7"-----------|
|-000-000-6-000-000-x-x------0"-7"-6"-----------------|
  ... ...   ... ...


Riff 2
|--------------------------------|
|--------------------------------|
|--------------------------------|
|--------------------------------|x1
|---------6----------------8*-7*-|
|-000-000-6-000-000--7*-6*-------|
  ... ...   ... ...

Riff 3
|--------------------------------------------------|
|--------------------------------------------------|
|-----------------------------------------8"-7"-6"-|
|----------------9"-8-"7"--------------------------|x2
|----------8"-7"-------------------8"-7"-----------|
|-0"-7"-6"----------------0"-7"-6"-----------------|

Riff 1 x1
riff 2 x1
riff 3 x2

Riff 3a
|-----------------------|
|-----------------------|
|-7-10-7--6-9-6--5-8-5/-|
|-----------------------|x1
|-----------------------|
|-----------------------|

Silent

Riff 4
|-------------|
|-------------|
|-------------|
|-------4-----|x8
|-4/5\4-2-5/4-|
|-2/3\2---3/2-|


Riff 5
|---------------|-----|
|---------------|-----|
|---------------|-----|
|-------4-----x3|-----|x2
|-4-5-4-2-5-4---|-2*~-|
|-2-3-2---3-2---|-----|
  , , ,   , ,

Riff 4 x8 i might of miscounted sorry if i did
Riff 5 x2

Riff 6
|----------------------------------------------|
|----------------------------------------------|
|----------------------------------------------|
|----------------------------------------------|x6
|----5"-4"------3"-2"------5"-4"------3"-2"-5"-|
|-0"------5"-1"------3"-0"------5"-1"----------|


Riff 4 x8-9 times..sorry kind of hard to count
Riff 5 x2

 End
|----|
|----|
|----|
|----|
|-2--|
|-0--|
Suggest correction
What's this?
You can suggest a correction to this tab. Community and Mods will review your correction and vote to approve or reject it.
comments
We did not receive enough feedback on this tab! Please rate:
print report bad tab
1 2 3 4 5
guest
You may want to rate the tab now too:
select rating
Please do not post tabs as comments. Select "correction" instead!