Oops, an error
Loading. Please wait.

Rape Camp Tab

version 3
version 3

Whole song

136 views 1 this week
no commentswrite comment
1 2 3 4 5
please rate
add to favorites
launch autoscroll
font size
0
reset
how to read this tab
guitar tuner
Tab Pro tools
  • play this tab
  • loop segment
  • change instrument
  • show fretboard
  • metronome
×
Best way to learn
"Rape Camp"
Autoscroll
slow
fast
+/-
esc
set tempo
stop
Contributor
I kinda did this one in a hurry, but I'm sure it's like 99% correct. Enjoy. Send 
feedback to: petrified_remains356@yahoo.com


INTRO:
C#|-----------------|
G#|-----------------|
E-|-----------------|
B-|-0-0-7-3-1-1-8-2-|
F#|-0-0-7-3-1-1-8-2-|
B-|-0-0-7-3-1-1-8-2-|
    . .



|------------------|----------------------------|
|------------------|----------------------------|
|------------------|----------------------------|
|-0--3--2--0--6--1-|-0--3--2--*pick-----0--6--1-|
|-0--3--2--0--6--1-|-0--3--2---scrape*--0--6--1-|
|-0--3--2--0--6--1-|-0--3--2------------0--6--1-|


C#|-----------------|
G#|-----------------|
E-|-----------------|
B-|-0-0-7-3-1-1-8-2-|
F#|-0-0-7-3-1-1-8-2-|
B-|-0-0-7-3-1-1-8-2-|
    . .

C#|-------------------|----------------------------|
G#|-------------------|----------------------------|
E-|-------------------|----------------------------|
B-|-0--3--2---0--6--1-|-0--3--2--*pick-----0--6--1-|
F#|-0--3--2---0--6--1-|-0--3--2---scrape*--0--6--1-|
B-|-0--3--2---0--6--1-|-0--3--2------------0--6--1-|


C#|-------------------|
G#|--------(x2)-------|
E-|-------------------|
B-|-0--3--2---0--6--1-|
F#|-0--3--2---0--6--1-|
B-|-0--3--2---0--6--1-|


C#|---------------------------------------------|
G#|---------------------------------------------|
E-|---------------------------------------------|
B-|---------------------------------------------|
F#|---------------------------------------------|
B-|-0"-3"-0"-3"-0"-3"-1"-3"-0"-3"-0"-3"-0"-3"-1-|


C#|--------------------------------------------------------|
G#|------------------------(x4)----------------------------|
E-|--------------------------------------------------------|
B-|-1-0--0-0-0-3--1-0--0-0-0-3--1-0--0-0-0-3--1-1--1-1-1-3-|
F#|-1-0--0-0-0-3--1-0--0-0-0-3--1-0--0-0-0-3--1-1--1-1-1-3-|
B-|-1-0--0-0-0-3--1-0--0-0-0-3--1-0--0-0-0-3--1-1--1-1-1-3-|
    .             .             .             .   


*This is rhythm, while lead does crazy harmonics and shit*
C#|----------------------------------|
G#|---------------(x2)---------------|
E-|----------------------------------|
B-|----------------------------------|
F#|----------------------------------|
B-|-1"-0"-3"-1"-0"-3"-1"-0"-3"-1"-3"-|
          

C#|--------------------------------------------------------|
G#|------------------------(x4)----------------------------|
E-|--------------------------------------------------------|
B-|-1-0--0-0-0-3--1-0--0-0-0-3--1-0--0-0-0-3--1-1--1-1-1-3-|
F#|-1-0--0-0-0-3--1-0--0-0-0-3--1-0--0-0-0-3--1-1--1-1-1-3-|
B-|-1-0--0-0-0-3--1-0--0-0-0-3--1-0--0-0-0-3--1-1--1-1-1-3-|
    .             .             .             .    

*This is rhythm, while lead does crazy harmonics and shit*
C#|----------------------------------|
G#|---------------(x2)---------------|
E-|----------------------------------|
B-|----------------------------------|
F#|----------------------------------|
B-|-1"-0"-3"-1"-0"-3"-1"-0"-3"-1"-3"-|


End with this:
|---------|
|---------|
|---------|
|-4-4-4-0-|
|-4-4-4-0-|
|-4-4-4-0-|
comments
We did not receive enough feedback on this tab! Please rate:
print report bad tab
1 2 3 4 5
I want to post or [tab]
guest
You may want to rate the tab now too:
select rating
Please do not post tabs as comments. Select "correction" instead!