Oops, an error
Loading. Please wait.

Resickened Tab

328 views 1 this week
no commentswrite comment
1 2 3 4 5
please rate
add to favorites
launch autoscroll
font size
0
reset
how to read this tab
guitar tuner
Tab Pro tools
  • play this tab
  • loop segment
  • change instrument
  • show fretboard
  • metronome
×
Best way to learn
"Resickened"
Autoscroll
slow
fast
+/-
esc
set tempo
stop
Contributor
Band:  Lord Gore
Album: Resickened
Song:  Resickened

Copyright (c)  Razorback Records
Version 1.0 - 2/14/06

Transcribed By: Jorge,Haemorrhage
Email:         xlos_crudos4x@yahoo.com


.  - palm mute           /  - slide up to
\  - slide down to       ~  - vibrato
h  - hammer on           b  - Bend
p  - pull off            Suffixes for bend
t  - tap                 f  - full bend    h - half bend
ph - pinched harmonic    q  - quarter bend t - tap bend
*  - see comment         ^  - Hold bend    r release bend
x  - Stuccatto           ~  - vibrato bend
,  - slight palm mute    () - ghost note, sustained note
"  - tremolo note        <> - Trill

Tuning 2.5 steps down

 Intro is this bass line here..              Guitars come in here
|-------------------------------------------|---------------|
|-------------------------------------------|---------------|
|-------------------------------------------|---------------|
|-------------------------------------------|-3-------------| x1
|-1-------------1------1-3--3-1-------------|-1-------5-5-5-|
|---0-0-0-0-000---0--0----------0-0-0-0-000-|---0-000-3-3-3-|
                                                . ...

 Riff 1
|---------------------------------------------------------|
|---------------------------------------------------------|
|---------------------------------------------------------|
|-3-------------3------3-5--5-3-------------3-------------| x4
|-1-2-----------1-2--2-1-3--3-1-2-----------1-------5-5-5-|
|---0-0-0-0-000---0--0----------0-0-0-0-000---0-000-3-3-3-|
      . . . ...                   . . . ...   . ...

 Riff 2
|---------------------------------------------------------|
|---------------------------------------------------------|
|---------------------------------------------------------|
|-6-6--6-3-3--3-2-2-----------6-6--6-3-3--3-5-5-----------| x1
|-6-6--6-3-3--3-2-2-----------6-6--6-3-3--3-5-5-----------|
|-4-4--4-1-1--1-0-0-0-0-0-000-4-4--4-1-1--1-3-3-3-3-3-333-|
                    . . . ...                   . . . ...

 Riff 2a
|---------------------------------------------|
|---------------------------------------------|
|---------------------------------------------|
|-6-6--6-3-3--3-2-2-----------6-6--6-3-3--3-5-| x1
|-6-6--6-3-3--3-2-2-----------6-6--6-3-3--3-5-|
|-4-4--4-1-1--1-0-0-0-0-0-000-4-4--4-1-1--1-3-|
                    . . . ...

Riff 1  x4
Riff 2  x3
Riff 2a x1

 Riff 3
|--------------------------------------|
|--------------------------------------|
|--------------------------------------|
|-2-------2---3-4-5--2-----------4-----| x4
|-2-------2---3-4-5--2-----------2-5-4-|
|-0--\6~--0---1-2-3--0--\6~--5~----3-2-|


 Riff 4
|--------------------------------------------------------------|
|--------------------------------------------------------------|
|--------------------------------------------------------------|
|---------4---------3--------------------4---------3-----------| x4
|-----3---2-----3---1---3--4-3-4-----3---2-----3---1---3--4----|
|-0-0-1-0---0-0-1-0---0-1--2-1-2-0-0-1-0---0-0-1-0---0-1--2-1~-|
  . .   .   . .   .   .          . .   .   . .   .   .

riff 3 x4
riff 4 x4


 Riff 5
|--------------------|
|--------------------|
|--------------------|
|-2----3-------------| x1
|-2----1-------5-5-5-|
|-0------0-000-3-3-3-|
         . ...

Riff 1  x4
Riff 2  x3
Riff 2a x1


 End with
|-------------------|
|-------------------|
|-------------------|
|-6--6--6--3--3--2"-|
|-6--6--6--3--3--2"-|
|-4--4--4--1--1--0"-| song fades
comments
We did not receive enough feedback on this tab! Please rate:
print report bad tab
1 2 3 4 5
I want to post or [tab]
guest
You may want to rate the tab now too:
select rating
Please do not post tabs as comments. Select "correction" instead!