Oops, an error
Loading. Please wait.

Brother Tab

55 views 3 this week
no commentswrite comment
1 2 3 4 5
3 more votes to show rating
add to favorites
launch autoscroll
font size
0
reset
how to read this tab
guitar tuner
Autoscroll
slow
fast
+/-
esc
set tempo
stop
Help us to improve Ultimate-Guitar.com Take our survey!
×
Author
Difficulty
novice
About this tab version
Main lead guitar parts and the verse finger picking. Was this info helpful? Yes No
[Intro]
Guitar 1 (Electric)
e|---------------------------------------------------------------------------|
B|------------12-------------------------------------------------------------|
G|------11-12----------------------------------------------------------------|
D|---12----------------------------------------------------------------------|
A|---------------------------------------------------------------------------|
E|---------------------------------------------------------------------------|

e|---------------------------------------------------------------------------|
B|------------12-------------------------------------------------------------|
G|------11-12----------------------------------------------------------------|
D|---12----------------------------------------------------------------------|
A|---------------------------------------------------------------------------|
E|---------------------------------------------------------------------------|


[Verse]
Guitar 2 (Acoustic)
     C      G      C     G      D      G      D      G
e|---------------------------------------------------------------------------|
B|-------5-------------5------------7-------------7--------------------------|
G|--------------4------------4-------------4-------------4-------------------|
D|-----5-5-----------5-5----------7-7-----------7-7--------------------------|
A|---3--------5-5--3-------5-5--5--------5-5--5--------5-5-------------------|
E|----------3------------3-------------3-------------3-----------------------|
   How long Have I known you  Brother
e|---------------------------------------------------------------------------|
B|-------5------------------------5------------------------------------------|
G|-------------------4----------------------4--------------------------------|
D|-----5-5----------------------5-5------------------------------------------|
A|---3-------------5-5--------3-----------5-5--------------------------------|
E|---------------3----------------------3------------------------------------|
     Hundreds of lives     Thousands of years
e|---------------------------------------------------------------------------|
B|-------7------------------------7------------------------------------------|
G|-------------------4----------------------4--------------------------------|
D|-----7-7----------------------7-7------------------------------------------|
A|---5-------------5-5--------5-----------5-5--------------------------------|
E|---------------3----------------------3------------------------------------|
     How many    miles have we wandered
e|---------------------------------------------------------------------------|
B|-------5------------------------5------------------------------------------|
G|-------------------4----------------------4--------------------------------|
D|-----5-5----------------------5-5------------------------------------------|
A|---3-------------5-5--------3-----------5-5--------------------------------|
E|---------------3----------------------3------------------------------------|
     Under the   skies       Chasing our fears
e|---------------------------------------------------------------------------|
B|-------7------------------------7------------------------------------------|
G|-------------------4----------------------4--------------------------------|
D|-----7-7----------------------7-7------------------------------------------|
A|---5-------------5-5--------5-----------5-5--------------------------------|
E|---------------3----------------------3------------------------------------|
     I know we can't stop what's coming 
e|---------------------------------------------------------------------------|
B|-------5------------------------5------------------------------------------|
G|-------------------4----------------------4--------------------------------|
D|-----5-5----------------------5-5------------------------------------------|
A|---3-------------5-5--------3-----------5-5--------------------------------|
E|---------------3----------------------3------------------------------------|
     But how I'll try oh      How I'll  try
e|---------------------------------------------------------------------------|
B|-------7------------------------7------------------------------------------|
G|-------------------4----------------------4--------------------------------|
D|-----7-7----------------------7-7------------------------------------------|
A|---5-------------5-5--------5-----------5-5--------------------------------|
E|---------------3----------------------3------------------------------------|
         Will you stand by me brother
e|---------------------------------------------------------------------------|
B|-------5------------------------5------------------------------------------|
G|-------------------4----------------------4--------------------------------|
D|-----5-5----------------------5-5------------------------------------------|
A|---3-------------5-5--------3-----------5-5--------------------------------|
E|---------------3----------------------3------------------------------------|
     One more    time oh     one  last ride
e|---------------------------------------------------------------------------|
B|-------7------------------------7------------------------------------------|
G|-------------------4----------------------4--------------------------------|
D|-----7-7----------------------7-7------------------------------------------|
A|---5-------------5-5--------5-----------5-5--------------------------------|
E|---------------3----------------------3------------------------------------|


[Chorus]
Guitar 1 (with slide)
e|---------------------------------------------------------------------------|
B|---10/12--10\8/10/12--12/15\12/15\12--15/17\15--/12------------------------|
G|---------------------------------------------------------------------------|
D|---------------------------------------------------------------------------|
A|---------------------------------------------------------------------------|
E|---------------------------------------------------------------------------|

e|---------------------------------------------15----------------------------|
B|---10/12--10\8/10/12--12/15\12/15\12--15/17--------------------------------|
G|---------------------------------------------------------------------------|
D|---------------------------------------------------------------------------|
A|---------------------------------------------------------------------------|
E|---------------------------------------------------------------------------|



************************************

| /   Slide up
| \   Slide down

************************************
Suggest correction
Give kudos to tab author, rate the tab!
1 2 3 4 5
comments
print report bad tab
guest
You may want to rate the tab now too:
select rating
Wanna post a correction for this tab? Suggest correction