Oops, an error
Loading. Please wait.

Ends Of The Earth tab

version 2
version 2

Whole song

1,442 views 15 this week
no commentswrite comment
1 2 3 4 5
x 3
add to favorites
×
Save as Personal and add changes to this tab that will be seen only by you. Learn more ›
×
You can save this tab as Personal to edit and correct it or add notes. All changes will be seen only by you. Learn more »
launch autoscroll
font size
0
reset
how to read this tab
guitar tuner
edit
Autoscroll
slow
fast
+/-
esc
set tempo
stop
Author
Difficulty
Hi all - I wanted to post some tabs for Ends of the Earth that I felt better approached the melody.
Realistically, this combines a bit of Tom's (lead - electric), Ben's (rhythm - acoustic),
and Miguel's (bass) respective parts, but if you're just one person trying to recreate the whole song,
I think this is a pretty good rendition.

Hats off to jish10 for the original chord posting.

Verse:
e|----------------|0---------------|0---------------|0---------------|
B|----------------|0---------------|0---------------|0---------------|
G|----------------|1---------------|1---------------|1---------------|
D|---2---2---2---2|2--2---2---2---2|2--2---2---2---2|2--2---2---2---2|
A|--2---2---2---2-|2-2---2---2---2-|2-2---2---2---2-|2-2---2---2---2-|
E|0---0---0---0---|0---0---0---0---|0---0---0---0---|0---0---0---0---|

Chorus:
e|4--0--0--0~-----|4--0--0--0~-----|4--0--0--0~-----|4--0--0--0~-----|
B|5--0--2--0~-----|5--0--2--0~-----|5--0--2--0~-----|5--0--2--0~-----|
G|6--1--2--1~-----|6--1--2--1~-----|6--1--2--1~-----|6--1--2--1~-----|
D|6--2--2--2~-----|6--2--2--2~-----|6--2--2--2~-----|6--2--2--2~-----|
A|4--2--0--2~-----|4--2--0--2~-----|4--2--0--2~-----|4--2--0--2~-----|
E|4--0--0--0~-----|4--0--0--0~-----|4--0--0--0~-----|4--0--0--0~-----|

Bridge:
e|0-0000-0-0-0000-|0-0-0-0---------|
B|2-2222-2-2-2220-|2-2-2-0---------|
G|2-2222-2-2-2221-|2-2-2-1---------|
D|2-2222-2-2-2222-|2-2-2-2---------|
A|0-0000-0-0-0002-|0-0-0-2---------|
E|0-0000-0-0-0000-|0-0-0-0----0----|

Bridge pt. 2 (Same as Outro):
e|----------------------------0--2--|----------------------------0--2|
B|----------------------------0--0--|----------------------------0--0|
G|----------------------------1--1--|----------------------------1--1|
D|6-7-9--7-6------------------2--2--|6-7-9--7-6------------------2--2|
A|----------9-7-6-------------2--2--|----------9-7-6-------------2--2|
E|---------------9-7-5-4--5-4-0--0--|---------------9-7-5-4--5-4-0--0|

e|----------------------------0--2--|----------------------------0--2|
B|----------------------------0--0--|----------------------------0--0|
G|----------------------------1--1--|----------------------------1--1|
D|6-7-9--7-6------------------2--2--|6-7-9--7-6------------------2--2|
A|----------9-7-6-------------2--2--|----------9-7-6-------------2--2|
E|---------------9-7-5-4--5-4-0--0--|---------------9-7-5-4--5-4-0--0|

Verse:
e|----------------|0---------------|0---------------|0---------------|
B|----------------|0---------------|0---------------|0---------------|
G|----------------|1---------------|1---------------|1---------------|
D|---2---2---2---2|2--2---2---2---2|2--2---2---2---2|2--2---2---2---2|
A|--2---2---2---2-|2-2---2---2---2-|2-2---2---2---2-|2-2---2---2---2-|
E|0---0---0---0---|0---0---0---0---|0---0---0---0---|0---0---0---0---|

Chorus:
e|4--0--0--0~-----|4--0--0--0~-----|4--0--0--0~-----|4--0--0--0~-----|
B|5--0--2--0~-----|5--0--2--0~-----|5--0--2--0~-----|5--0--2--0~-----|
G|6--1--2--1~-----|6--1--2--1~-----|6--1--2--1~-----|6--1--2--1~-----|
D|6--2--2--2~-----|6--2--2--2~-----|6--2--2--2~-----|6--2--2--2~-----|
A|4--2--0--2~-----|4--2--0--2~-----|4--2--0--2~-----|4--2--0--2~-----|
E|4--0--0--0~-----|4--0--0--0~-----|4--0--0--0~-----|4--0--0--0~-----|

Verse:
e|----------------|0---------------|0---------------|0---------------|
B|----------------|0---------------|0---------------|0---------------|
G|----------------|1---------------|1---------------|1---------------|
D|---2---2---2---2|2--2---2---2---2|2--2---2---2---2|2--2---2---2---2|
A|--2---2---2---2-|2-2---2---2---2-|2-2---2---2---2-|2-2---2---2---2-|
E|0---0---0---0---|0---0---0---0---|0---0---0---0---|0---0---0---0---|

Outro x 2:
e|----------------------------0--2--|----------------------------0--2|
B|----------------------------0--0--|----------------------------0--0|
G|----------------------------1--1--|----------------------------1--1|
D|6-7-9--7-6------------------2--2--|6-7-9--7-6------------------2--2|
A|----------9-7-6-------------2--2--|----------9-7-6-------------2--2|
E|---------------9-7-5-4--5-4-0--0--|---------------9-7-5-4--5-4-0--0|

e|----------------------------0--2--|----------------------------0--2|
B|----------------------------0--0--|----------------------------0--0|
G|----------------------------1--1--|----------------------------1--1|
D|6-7-9--7-6------------------2--2--|6-7-9--7-6------------------2--2|
A|----------9-7-6-------------2--2--|----------9-7-6-------------2--2|
E|---------------9-7-5-4--5-4-0--0--|---------------9-7-5-4--5-4-0--0|

e|----------------------------0--2--|----------------------------0--2|
B|----------------------------0--0--|----------------------------0--0|
G|----------------------------1--1--|----------------------------1--1|
D|6-7-9--7-6------------------2--2--|6-7-9--7-6------------------2--2|
A|----------9-7-6-------------2--2--|----------9-7-6-------------2--2|
E|---------------9-7-5-4--5-4-0--0--|---------------9-7-5-4--5-4-0--0|

e|----------------------------0--2--|----------------------------0--2|
B|----------------------------0--0--|----------------------------0--0|
G|----------------------------1--1--|----------------------------1--1|
D|6-7-9--7-6------------------2--2--|6-7-9--7-6------------------2--2|
A|----------9-7-6-------------2--2--|----------9-7-6-------------2--2|
E|---------------9-7-5-4--5-4-0--0--|---------------9-7-5-4--5-4-0--0|


---------------------------------------------

[2 bars of Verse]

[Verse]
Oh, there's a river that winds on forever
I'm gonna see where it leads
Oh, there's a mountain that no man has mounted
I'm gonna stand on the peak

Out there's a land that time don't command
Wanna be the first to arrive
No time for ponderin' why I'm-a wanderin'
Not while we're both still alive

[Chorus]
To the ends of the earth, would you follow me
There's a world that was meant for our eyes to see
To the ends of the earth, would you follow me
If you won't, I will say my goodbyes to thee

[Bridge]
[Bridge Pt 2]

[Verse]
Oh, there's an island where all things are silent
I'm gonna whistle a tune
Oh, there's a desert that size can't be measured
I'm gonna count all the dunes

Out there's a a world that calls for me, girl
Headin' out into the unknown
Wayfarin' strangers, and all kinds of dangers
Please don't say I'm going alone

[Chorus]
To the ends of the earth, would you follow me
There's a world that was meant for our eyes to see
To the ends of the earth, would you follow me
if you wont, I will say my goodbyes to thee

[Verse]
I was a-ready to die for you, baby
Doesn't mean I'm ready to stay
What good is livin' a life you've been given
If all you do is stand in one place

I'm on a river that winds on forever
Follow 'til I get where I'm goin'
Maybe I'm headin' to die but I'm still gonna try
I guess I'm goin' alone

[Outro] x 2

            
            
Suggest correction
Creating personal tab
Creating personal tab
You can edit any tab online and save it as your Personal.

You can edit, replace or remove any tab part or add personal notes – all changes will be seen only by you.

Personal tabs can be accessed anytime from any device, even offline.
Learn more »
Give kudos to tab author, rate the tab!
1 2 3 4 5
comments
print report bad tab
guest
You may want to rate the tab now too:
select rating
Wanna post a correction for this tab? Suggest correction