Oops, an error
Loading. Please wait.

She Lit A Fire Bass Tab

7 views 3 this week
no commentswrite comment
1 2 3 4 5
3 more votes to show rating
add to favorites
launch autoscroll
font size
0
reset
guitar tuner
Autoscroll
slow
fast
+/-
esc
set tempo
stop
Help us to improve Ultimate-Guitar.com Take our survey!
×
Author
Difficulty
novice
About this tab version
Based off of the studio version. Was this info helpful? Yes No
[Intro] (0:00 - 1:04). Bass enters at (0:36).

G|--------------------------------|              
D|----10--------------------------|                    
A|--------12\--8--7--10-11-12\--8-|  play 5 times                  
E|-8------------------------------| 

[Verse] (1:04 - 1:27)

G|--------------------------------|                 
D|----10--------------------------|                    
A|--------12\--8--7--10-11-12\--8-|  play 4 times                 
E|-8------------------------------| 

[Chorus] (1:27 - 1:49)

G|--------------------------------|                 
D|----10--------------------------|                    
A|--------12\--8--7--10-11-12\--8-|  play 4 times                  
E|-8------------------------------| 

[Verse] (1:49 - 2:12)

G|--------------------------------|                 
D|----10--------------------------|                    
A|--------12\--8--7--10-11-12\--8-|  play 4 times                   
E|-8------------------------------| 

[Bridge] (2:12 - 3:20)

G|---------------------------------------------------------|
D|---------------------10----------------------------------|
A|-8-----12~----10---------10--8-----12~----10--10-11-12~--|  play 3 times in a row
E|----8-------------8-------------8------------------------|

G|-------------------------------------------------------------------------|
D|---------------------10--------------------------------------------------|
A|-8-----12~----10---------10--8-----12~----10--10-11-12~----10--10-11-----| play 1 time
E|----8-------------8-------------8------------------------------------8~--|

G|-----|
D|-----|  between (2:58 - 3:20)
A|-----|  play three times. Listen for timing
E|-8~--|

[Chorus] (3:20 - 4:30). No bass between (3:46 - 4:30)

G|--------------------------------|                              G|-----|
D|----10--------------------------|                              D|-----| 
A|--------12\--8--7--10-11-12\--8-|  play 4 times, then end on   A|-----|                    
E|-8------------------------------|                              E|-8~--| 

************************************
| \   Slide down
| ~   Let note ring out
************************************
Suggest correction
Give kudos to tab author, rate the tab!
1 2 3 4 5
comments
print report bad tab
guest
You may want to rate the tab now too:
select rating
Wanna post a correction for this tab? Suggest correction