Oops, an error
Loading. Please wait.

The Night We Met tab

version 2
version 2

Whole song

  • This version includes the plucking pattern for the... Show more
  • There are chords written at the top of the tablatu... Show more
18,133 views 531 this week
1 commentread comment
1 2 3 4 5
x 22
add to favorites
×
Save as Personal and add changes to this tab that will be seen only by you. Learn more ›
×
You can save this tab as Personal to edit and correct it or add notes. All changes will be seen only by you. Learn more »
launch autoscroll
font size
0
reset
how to read this tab
guitar tuner
edit
Autoscroll
slow
fast
+/-
esc
set tempo
stop
About this tab version
This version includes the plucking pattern for the open chord formations with a capo on the 2nd fret.
Capo 2, Chord Progression: Em, D, G, Em, G, C

[Intro]
Ooooo oooo ooo
Ooooo oooo ooo

   Em            D       G
e|-------3-----|-----2-|-------------|-------------|
B|-----5---5---|-------|-------0-----|-------0-----|
G|---4-------4-|---2---|-----0---0---|-----0---0---|
D|-2-----------|-0-----|---0-------0-|---0-------0-|
A|-------------|-------|-------------|-------------|
E|-------------|-------|-3-----------|-3-----------|

   Em            G       C
e|-------------|-------|-------0-----|-------0-----|
B|-------------|-------|-----1---1---|-----1---1---|
G|-------0-----|-----0-|---0-------0-|---0-------0-|
D|-----2---2---|---0---|-------------|-------------|
A|---2-------2-|-------|-3-----------|-3-----------|
E|-0-----------|-3-----|-------------|-------------|


[Verse]
(I am not the only traveler)
   Em            D       G
e|-------3-----|-----2-|-------------|-------------|
B|-----5---5---|-------|-------0-----|-------0-----|
G|---4-------4-|---2---|-----0---0---|-----0---0---|
D|-2-----------|-0-----|---0-------0-|---0-------0-|
A|-------------|-------|-------------|-------------|
E|-------------|-------|-3-----------|-3-----------|

(who has not repaid his debt)
   Em            G       C
e|-------------|-------|-------0-----|-------0-----|
B|-------------|-------|-----1---1---|-----1---1---|
G|-------0-----|-----0-|---0-------0-|---0-------0-|
D|-----2---2---|---0---|-------------|-------------|
A|---2-------2-|-------|-3-----------|-3-----------|
E|-0-----------|-3-----|-------------|-------------|

(I’ve been searchin’ for a trail to follow again)
   Em            D       G
e|-------3-----|-----2-|-------------|-------------|
B|-----5---5---|-------|-------0-----|-------0-----|
G|---4-------4-|---2---|-----0---0---|-----0---0---|
D|-2-----------|-0-----|---0-------0-|---0-------0-|
A|-------------|-------|-------------|-------------|
E|-------------|-------|-3-----------|-3-----------|

(Take me back to the night we met)
   Em            G       C
e|-------------|-------|-------0-----|-------0-----|
B|-------------|-------|-----1---1---|-----1---1---|
G|-------0-----|-----0-|---0-------0-|---0-------0-|
D|-----2---2---|---0---|-------------|-------------|
A|---2-------2-|-------|-3-----------|-3-----------|
E|-0-----------|-3-----|-------------|-------------|


[Verse]
(And then I can tell myself)
   Em            G       C
e|-------------|-------|-------0-----|-------0-----|
B|-------------|-------|-----1---1---|-----1---1---|
G|-------0-----|-----0-|---0-------0-|---0-------0-|
D|-----2---2---|---0---|-------------|-------------|
A|---2-------2-|-------|-3-----------|-3-----------|
E|-0-----------|-3-----|-------------|-------------|

(What the hell I’m supposed to do)
   Em            G       C
e|-------------|-------|-------0-----|-------0-----|
B|-------------|-------|-----1---1---|-----1---1---|
G|-------0-----|-----0-|---0-------0-|---0-------0-|
D|-----2---2---|---0---|-------------|-------------|
A|---2-------2-|-------|-3-----------|-3-----------|
E|-0-----------|-3-----|-------------|-------------|

(And then I can tell myself)
   Em            G       C
e|-------------|-------|-------0-----|-------0-----|
B|-------------|-------|-----1---1---|-----1---1---|
G|-------0-----|-----0-|---0-------0-|---0-------0-|
D|-----2---2---|---0---|-------------|-------------|
A|---2-------2-|-------|-3-----------|-3-----------|
E|-0-----------|-3-----|-------------|-------------|

(Not to ride along with you)
   Em            G       C
e|-------------|-------|-------0-----|-------0-----|
B|-------------|-------|-----1---1---|-----1---1---|
G|-------0-----|-----0-|---0-------0-|---0-------0-|
D|-----2---2---|---0---|-------------|-------------|
A|---2-------2-|-------|-3-----------|-3-----------|
E|-0-----------|-3-----|-------------|-------------|

[CHORUS](this part can also be played as chords)
(I had all and then most of you, some and now none of you)
e|-0-----------------------------------------|------------|------------|
B|-0-----------------------------------------|------0-----|------0-----|
G|-0-----------------------------------------|----0---0---|----0---0---|
D|-2-----------------------------------------|--0-------0-|--0-------0-|
A|-2-----------------------------------------|------------|------------|
E|-0-----------------------------------------|3-----------|3-----------|

(Take me back to the night we met)
   Em            G       C
e|-------------|-------|-------0-----|-------0-----|
B|-------------|-------|-----1---1---|-----1---1---|
G|-------0-----|-----0-|---0-------0-|---0-------0-|
D|-----2---2---|---0---|-------------|-------------|
A|---2-------2-|-------|-3-----------|-3-----------|
E|-0-----------|-3-----|-------------|-------------|

(I don’t know what I’m supposed to do, haunted by the ghost of you)
e|-------3-----|-----2-|-------------|-------------|
B|-----5---5---|-------|-------0-----|-------0-----|
G|---4-------4-|---2---|-----0---0---|-----0---0---|
D|-2-----------|-0-----|---0-------0-|---0-------0-|
A|-------------|-------|-------------|-------------|
E|-------------|-------|-3-----------|-3-----------|

(Oh take me back to the night we met)
e|-------------|-------|-------0-----|-------0-----|
B|-------------|-------|-----1---1---|-----1---1---|
G|-------0-----|-----0-|---0-------0-|---0-------0-|
D|-----2---2---|---0---|-------------|-------------|
A|---2-------2-|-------|-3-----------|-3-----------|
E|-0-----------|-3-----|-------------|-------------|

[Verse]
(When the night was full of terror)
e|-------------|-------|-------0-----|-------0-----|
B|-------------|-------|-----1---1---|-----1---1---|
G|-------0-----|-----0-|---0-------0-|---0-------0-|
D|-----2---2---|---0---|-------------|-------------|
A|---2-------2-|-------|-3-----------|-3-----------|
E|-0-----------|-3-----|-------------|-------------|

(And your eyes were filled with tears)
e|-------------|-------|-------0-----|-------0-----|
B|-------------|-------|-----1---1---|-----1---1---|
G|-------0-----|-----0-|---0-------0-|---0-------0-|
D|-----2---2---|---0---|-------------|-------------|
A|---2-------2-|-------|-3-----------|-3-----------|
E|-0-----------|-3-----|-------------|-------------|

(When you had not touched me yet)
e|-------------|-------|-------0-----|-------0-----|
B|-------------|-------|-----1---1---|-----1---1---|
G|-------0-----|-----0-|---0-------0-|---0-------0-|
D|-----2---2---|---0---|-------------|-------------|
A|---2-------2-|-------|-3-----------|-3-----------|
E|-0-----------|-3-----|-------------|-------------|

(Oh take me back to the night we met)
e|-------------|-------|-------0-----|-------0-----|
B|-------------|-------|-----1---1---|-----1---1---|
G|-------0-----|-----0-|---0-------0-|---0-------0-|
D|-----2---2---|---0---|-------------|-------------|
A|---2-------2-|-------|-3-----------|-3-----------|
E|-0-----------|-3-----|-------------|-------------|

[Chorus]
(I had all and then most of you, some and now none of you)
e|-------3-----|-----2-|-------------|-------------|
B|-----5---5---|-------|-------0-----|-------0-----|
G|---4-------4-|---2---|-----0---0---|-----0---0---|
D|-2-----------|-0-----|---0-------0-|---0-------0-|
A|-------------|-------|-------------|-------------|
E|-------------|-------|-3-----------|-3-----------|

(Take me back to the night we met)
e|-------------|-------|-------0-----|-------0-----|
B|-------------|-------|-----1---1---|-----1---1---|
G|-------0-----|-----0-|---0-------0-|---0-------0-|
D|-----2---2---|---0---|-------------|-------------|
A|---2-------2-|-------|-3-----------|-3-----------|
E|-0-----------|-3-----|-------------|-------------|

(I don’t know what I’m supposed to do, haunted by the ghost of you)
e|-------3-----|-----2-|-------------|-------------|
B|-----5---5---|-------|-------0-----|-------0-----|
G|---4-------4-|---2---|-----0---0---|-----0---0---|
D|-2-----------|-0-----|---0-------0-|---0-------0-|
A|-------------|-------|-------------|-------------|
E|-------------|-------|-3-----------|-3-----------|

(Take me back to the night we met)
e|-------------|-------|-------0-----|-------0-----|
B|-------------|-------|-----1---1---|-----1---1---|
G|-------0-----|-----0-|---0-------0-|---0-------0-|
D|-----2---2---|---0---|-------------|-------------|
A|---2-------2-|-------|-3-----------|-3-----------|
E|-0-----------|-3-----|-------------|-------------|

[Outro]
e|-------------|-------|-------0-----|-------0-----|
B|-------------|-------|-----1---1---|-----1---1---|
G|-------0-----|-----0-|---0-------0-|---0-------0-|
D|-----2---2---|---0---|-------------|-------------|
A|---2-------2-|-------|-3-----------|-3-----------|
E|-0-----------|-3-----|-------------|-------------|

e|-------------|-------|-------0-----|-------0-----|
B|-------------|-------|-----1---1---|-----1---1---|
G|-------0-----|-----0-|---0-------0-|---0-------0-|
D|-----2---2---|---0---|-------------|-------------|
A|---2-------2-|-------|-3-----------|-3-----------|
E|-0-----------|-3-----|-------------|-------------|

            
            
Suggest correction
Creating personal tab
Creating personal tab
You can edit any tab online and save it as your Personal.

You can edit, replace or remove any tab part or add personal notes – all changes will be seen only by you.

Personal tabs can be accessed anytime from any device, even offline.
Learn more »
comments
print report bad tab
1 comment total.
+2 reply
jim.white1 36 May 17, 2017 12:10 PM

This tab works nicely. One subtle change I found is that the Em chord tends to be plucked on the lower strings through most of the song. Something like this...

e|-------------|
B|-------------|
G|-------0-----|
D|-----2---2---|
A|---2-------2-|
E|-0-----------|

Also I hear a high note when the D chord is played in the intro/chorus. Like this..

e|----2-|
B|------|
G|--2---|
D|0-----|
A|------|
E|------|

I hope that makes sense? Thanks for posting this, nkunze!

guest
You may want to rate the tab now too:
select rating
Wanna post a correction for this tab? Suggest correction