Oops, an error
Loading. Please wait.

The Night We Met tab

version 3
version 3

Whole song

  • This version includes the plucking pattern for the... Show more
  • There are chords written at the top of the tablatu... Show more
2,617 views 129 this week
4 commentsread comments
1 2 3 4 5
x 5
add to favorites
×
Save as Personal and add changes to this tab that will be seen only by you. Learn more ›
×
You can save this tab as Personal to edit and correct it or add notes. All changes will be seen only by you. Learn more »
launch autoscroll
font size
0
reset
how to read this tab
guitar tuner
edit
Autoscroll
slow
fast
+/-
esc
set tempo
stop
About this tab version
There are chords written at the top of the tablature for the intro and outro, which allow you to play the song easier. The song can be played without a capo, but it sounds best with one. Was this info helpful? Yes No
[Intro]
        Em         D        G          G          Em          G         C           C
e|-------3-----|-----2-|---------|---------|-------------|-------|-------0-----|-------0-------|
B|---------0---|-------|-------0-|-------0-|-------------|-------|---------1---|---------1-----|
G|-----0-----0-|-------|-----0---|-----0---|-------0-----|-----0-|-----0-----0-|-----0-----0---|
D|---2---------|---0---|---0-----|---0-----|-----2---2---|-------|---2---------|---2-----------|
A|-------------|-0-----|---------|---------|---2-------2-|---2---|-3-----------|-3-------------|
E|-0-----------|-------|-3-------|-3-------|-0-----------|-3-----|-------------|---------------| X2

[Verse]
(I am not the only traveler) 
e|-------3-----|-----2-|---------|---------|
B|---------0---|-------|-------0-|-------0-|
G|-----0-----0-|-------|-----0---|-----0---|
D|---2---------|---0---|---0-----|---0-----|
A|-------------|-0-----|---------|---------|
E|-0-----------|-------|-3-------|-3-------| 

(Who has not repaid his debt)
e|-------------|-------|-------0-----|-------0-------|
B|-------------|-------|---------1---|---------1-----|
G|-------0-----|-----0-|-----0-----0-|-----0-----0---|
D|-----2---2---|-------|---2---------|---2-----------|
A|---2-------2-|---2---|-3-----------|-3-------------|
E|-0-----------|-3-----|-------------|---------------|

(I've been searching for a trail to follow again)
e|-------3-----|-----2-|---------|---------|
B|---------0---|-------|-------0-|-------0-|
G|-----0-----0-|-------|-----0---|-----0---|
D|---2---------|---0---|---0-----|---0-----|
A|-------------|-0-----|---------|---------|
E|-0-----------|-------|-3-------|-3-------| 

(Take me back to the night we met)
e|-------------|-------|-------0-----|-------0-------|
B|-------------|-------|---------1---|---------1-----|
G|-------0-----|-----0-|-----0-----0-|-----0-----0---|
D|-----2---2---|-------|---2---------|---2-----------|
A|---2-------2-|---2---|-3-----------|-3-------------|
E|-0-----------|-3-----|-------------|---------------|

[Verse]
(And then I can tell myself)
e|-------------|-------|-------0-----|-------0-------|
B|-------------|-------|---------1---|---------1-----|
G|-------0-----|-----0-|-----0-----0-|-----0-----0---|
D|-----2---2---|-------|---2---------|---2-----------|
A|---2-------2-|---2---|-3-----------|-3-------------|
E|-0-----------|-3-----|-------------|---------------|

(What the hell I'm supposed to do)
e|-------------|-------|-------0-----|-------0-------|
B|-------------|-------|---------1---|---------1-----|
G|-------0-----|-----0-|-----0-----0-|-----0-----0---|
D|-----2---2---|-------|---2---------|---2-----------|
A|---2-------2-|---2---|-3-----------|-3-------------|
E|-0-----------|-3-----|-------------|---------------|

(And then I can tell myself)
e|-------------|-------|-------0-----|-------0-------|
B|-------------|-------|---------1---|---------1-----|
G|-------0-----|-----0-|-----0-----0-|-----0-----0---|
D|-----2---2---|-------|---2---------|---2-----------|
A|---2-------2-|---2---|-3-----------|-3-------------|
E|-0-----------|-3-----|-------------|---------------|

(Not to ride along with you)
e|-------------|-------|-------0-----|-------0-------|
B|-------------|-------|---------1---|---------1-----|
G|-------0-----|-----0-|-----0-----0-|-----0-----0---|
D|-----2---2---|-------|---2---------|---2-----------|
A|---2-------2-|---2---|-3-----------|-3-------------|
E|-0-----------|-3-----|-------------|---------------|

[Chorus]
(I had all and then most of you)
e|-------3-----|
B|---------0---|
G|-----0-----0-|
D|---2---------|
A|-------------|
E|-0-----------|

(Some and now none of you)
e|-----2-|---------|---------|
B|-------|-------0-|-------0-|
G|-------|-----0---|-----0---|
D|---0---|---0-----|---0-----|
A|-0-----|---------|---------|
E|-------|-3-------|-3-------|

(Take me back to the night we met)
e|-------------|-------|-------0-----|-------0-------|
B|-------------|-------|---------1---|---------1-----|
G|-------0-----|-----0-|-----0-----0-|-----0-----0---|
D|-----2---2---|-------|---2---------|---2-----------|
A|---2-------2-|---2---|-3-----------|-3-------------|
E|-0-----------|-3-----|-------------|---------------| 

(I don't know what I'm supposed to do)
e|-------3-----|
B|---------0---|
G|-----0-----0-|
D|---2---------|
A|-------------|
E|-0-----------|

(Haunted by the ghost of you)
e|-----2-|---------|---------|
B|-------|-------0-|-------0-|
G|-------|-----0---|-----0---|
D|---0---|---0-----|---0-----|
A|-0-----|---------|---------|
E|-------|-3-------|-3-------|

(Oh, take me back to the night we met)
e|-------------|-------|-------0-----|-------0-------|
B|-------------|-------|---------1---|---------1-----|
G|-------0-----|-----0-|-----0-----0-|-----0-----0---|
D|-----2---2---|-------|---2---------|---2-----------|
A|---2-------2-|---2---|-3-----------|-3-------------|
E|-0-----------|-3-----|-------------|---------------| 

[Verse]
(When the night was full of terrors)
e|-------------|-------|-------0-----|-------0-------|
B|-------------|-------|---------1---|---------1-----|
G|-------0-----|-----0-|-----0-----0-|-----0-----0---|
D|-----2---2---|-------|---2---------|---2-----------|
A|---2-------2-|---2---|-3-----------|-3-------------|
E|-0-----------|-3-----|-------------|---------------|

(And your eyes were filled with tears)
e|-------------|-------|-------0-----|-------0-------|
B|-------------|-------|---------1---|---------1-----|
G|-------0-----|-----0-|-----0-----0-|-----0-----0---|
D|-----2---2---|-------|---2---------|---2-----------|
A|---2-------2-|---2---|-3-----------|-3-------------|
E|-0-----------|-3-----|-------------|---------------|

(When you had not touched me yet)
e|-------------|-------|-------0-----|-------0-------|
B|-------------|-------|---------1---|---------1-----|
G|-------0-----|-----0-|-----0-----0-|-----0-----0---|
D|-----2---2---|-------|---2---------|---2-----------|
A|---2-------2-|---2---|-3-----------|-3-------------|
E|-0-----------|-3-----|-------------|---------------|

(Oh, take me back to the night we met)
e|-------------|-------|-------0-----|-------0-------|
B|-------------|-------|---------1---|---------1-----|
G|-------0-----|-----0-|-----0-----0-|-----0-----0---|
D|-----2---2---|-------|---2---------|---2-----------|
A|---2-------2-|---2---|-3-----------|-3-------------|
E|-0-----------|-3-----|-------------|---------------|

[Chorus]
(I had all and then most of you)
e|-------3-----|
B|---------0---|
G|-----0-----0-|
D|---2---------|
A|-------------|
E|-0-----------|

(Some and now none of you)
e|-----2-|---------|---------|
B|-------|-------0-|-------0-|
G|-------|-----0---|-----0---|
D|---0---|---0-----|---0-----|
A|-0-----|---------|---------|
E|-------|-3-------|-3-------|

(Take me back to the night we met)
e|-------------|-------|-------0-----|-------0-------|
B|-------------|-------|---------1---|---------1-----|
G|-------0-----|-----0-|-----0-----0-|-----0-----0---|
D|-----2---2---|-------|---2---------|---2-----------|
A|---2-------2-|---2---|-3-----------|-3-------------|
E|-0-----------|-3-----|-------------|---------------| 

(I don't know what I'm supposed to do)
e|-------3-----|
B|---------0---|
G|-----0-----0-|
D|---2---------|
A|-------------|
E|-0-----------|

(Haunted by the ghost of you)
e|-----2-|---------|---------|
B|-------|-------0-|-------0-|
G|-------|-----0---|-----0---|
D|---0---|---0-----|---0-----|
A|-0-----|---------|---------|
E|-------|-3-------|-3-------|

(Oh, take me back to the night we met)
e|-------------|-------|-------0-----|-------0-------|
B|-------------|-------|---------1---|---------1-----|
G|-------0-----|-----0-|-----0-----0-|-----0-----0---|
D|-----2---2---|-------|---2---------|---2-----------|
A|---2-------2-|---2---|-3-----------|-3-------------|
E|-0-----------|-3-----|-------------|---------------| 

[Outro]
       Em          G          C              C
e|-------------|-------|-------0-----|-------0-------|
B|-------------|-------|---------1---|---------1-----|
G|-------0-----|-----0-|-----0-----0-|-----0-----0---|
D|-----2---2---|-------|---2---------|---2-----------|
A|---2-------2-|---2---|-3-----------|-3-------------|
E|-0-----------|-3-----|-------------|---------------|

       Em          G          C              C
e|-------------|-------|-------0-----|-------0-------|
B|-------------|-------|---------1---|---------1-----|
G|-------0-----|-----0-|-----0-----0-|-----0-----0---|
D|-----2---2---|-------|---2---------|---2-----------|
A|---2-------2-|---2---|-3-----------|-3-------------|
E|-0-----------|-3-----|-------------|---------------|

            
            
Suggest correction
Creating personal tab
Creating personal tab
You can edit any tab online and save it as your Personal.

You can edit, replace or remove any tab part or add personal notes – all changes will be seen only by you.

Personal tabs can be accessed anytime from any device, even offline.
Learn more »
comments
print report bad tab
4 comments total. Showing first comments.
+1 reply
only.punk.rock.music 370 Jun 22, 2017 05:59 PM

Do you know how to play the slide they play at the end of the song?

+1 reply
Crashdog44 24 Jun 22, 2017 11:49 PM

I am not completely sure how to play it. I can look into how to play the slide, but I do believe it is played around fret ten including the capo.

0 reply
only.punk.rock.music 370 Jun 23, 2017 10:18 PM

It would be great if you can find how! I can't hit the notes

guest
You may want to rate the tab now too:
select rating
Wanna post a correction for this tab? Suggest correction