Oops, an error
Loading. Please wait.

Way Out There tab

version 1
version 1

Whole song

345 views 3 this week
no commentswrite comment
1 2 3 4 5
x 3
add to favorites
×
Save as Personal and add changes to this tab that will be seen only by you. Learn more ›
×
You can save this tab as Personal to edit and correct it or add notes. All changes will be seen only by you. Learn more »
launch autoscroll
font size
0
reset
how to read this tab
guitar tuner
edit
Autoscroll
slow
fast
+/-
esc
set tempo
stop
Author
Difficulty
Way Out There - Lord Huron
Strange Trails (2015)


[Intro] 

e|---------0h2---------------------------------------------------------------|
B|-------3-----------0-------3-------------------------0---------------------|
G|-----4-----------2-------4---------4---------4-----2-----------------------|
D|---4-----------2-------4---------5---------5-----2-------------------------|
A|-2-----------0-------2---------5-----5---5-----0---------------------------| x4
E|-----------------------------3---------3-----------------------------------|


[Verse]

Same as intro

e|---------0h2---------------------------------------------------------------|
B|-------3-----------0-------3-------------------------0---------------------|
G|-----4-----------2-------4---------4---------4-----2-----------------------|
D|---4-----------2-------4---------5---------5-----2-------------------------|
A|-2-----------0-------2---------5-----5---5-----0---------------------------| x4
E|-----------------------------3---------3-----------------------------------


[Chorus]

Bm              D
Find me way out there
                                  G
there's no road that will lead us back
         Bm                 D
When you follow the strange trails
                            G
they will take you who knows where
Bm           D                        G
If I found a way to stay with you tonight
Bm                    D                         G
it would only make me late, for a date I can't escape


[Bridge]

Two guitars here, 1st guitar plays intro/verse pattern and 2nd guitar plays:
e|---------------------------------------------------------------------------|
B|-12-12-12\10-7-10-10/12-7----10-10-10-7-10-7-10/12-7-----------------------|
G|-11-11-11\9--7-9--9-/11-7----9--9--9--7-9--7-9-/11-7-----------------------|
D|---------------------------------------------------------------------------|
A|---------------------------------------------------------------------------| x2
E|---------------------------------------------------------------------------|


[Chorus]

Bm              D
Find me way out there
                                  G
there's no road that will lead us back
         Bm                 D
When you follow the strange trails
                            G
they will take you who knows where
Bm           D                        G
If I found a way to stay with you tonight
Bm                    D                         G
it would only make me late, for a date I can't escape


[Misc]

While this is played on a theremin, it can be emulated with electric guitar
and reverb -- Bm pentatonic scale is a good choice for improvisation

e|---------------------------------------------------------------------------|
B|--------17b19br17-15----------------------------17b19br17-15-17------------|
G|-16~------------------16-14--------------16~--------------------16---------|
D|---------------------------------------------------------------------------|
A|---------------------------------------------------------------------------|
E|---------------------------------------------------------------------------|



************************************

| h   Hammer-on
| b   Bend
| br  Bend release
| /   Slide up
| \   Slide down
| ~   Vibrato

************************************
Suggest correction
Creating personal tab
Creating personal tab
You can edit any tab online and save it as your Personal.

You can edit, replace or remove any tab part or add personal notes – all changes will be seen only by you.

Personal tabs can be accessed anytime from any device, even offline.
Learn more »
Give kudos to tab author, rate the tab!
1 2 3 4 5
comments
print report bad tab
guest
You may want to rate the tab now too:
select rating
Wanna post a correction for this tab? Suggest correction