Oops, an error
Loading. Please wait.

When Will I See You Again tab

142 views 6 this week
no commentswrite comment
1 2 3 4 5
2 more votes to show rating
add to favorites
×
Save as Personal and add changes to this tab that will be seen only by you. Learn more ›
×
You can save this tab as Personal to edit and correct it or add notes. All changes will be seen only by you. Learn more »
launch autoscroll
font size
0
reset
how to read this tab
guitar tuner
edit
Autoscroll
slow
fast
+/-
esc
set tempo
stop
Author
Difficulty
About this tab version
This is the acoustic live "In the Open" version as requested on the UG forums -- you can watch the video below. The second guitar that plays the lead line is capoed 1 in the video, but I've simplified the lead lines so that you can play them without a capo. The video of this version is here: https://www.youtube.com/watch?v=sa_by_nlSNQ. Was this info helpful? Yes No
This is the live acoustic "In the Open" version as requested on the UG forums -- you can watch the video 
below. The second guitar that plays the lead line is capoed 1 in the video, but I've simplified the lead 
lines so that you can play them without a capo.

The video of this version is here: https://www.youtube.com/watch?v=sa_by_nlSNQ

[Intro]
D F#m G D

e|----------10---10--9--7--5--2---3---2--|
B|----------10---------------------------|  
G|--7----11----11----9--7--6--2---4---2--|       
D|--7------------------------------------|      
A|--5------------------------------------|
E|---------------------------------------|

[Verse]
D                   F#m      G              D
If you got what you came for why should you stay?
D                        F#m   G       D
If you know where you're going why delay?
D                 F#m      G            D
If you won't be returning don't say goodbye
D                     F#m     G                         D
Turn your back on the ocean follow the sun through the sky

[Chorus]

e|--10------10------12------10----10------10--------------|
B|---------------------------------------------5-5h7p5----|  
G|--11---11-11---11-12---11-11----11---11-11-----------7--|      
D|---------------------------------------------7----------|        
A|--------------------------------------------------------|
E|--------------------------------------------------------|

D G 
D                          A   D
When will I see you again?
D G 
D           Bm             A   D
When will I see you again?


e|---------10---10--9--7--5--2---3---2--|
B|---------10---------------------------|
G|-7----11----11----9--7--6--2---4---2--|       
D|-7------------------------------------|       
A|-5------------------------------------|
E|--------------------------------------|

D 
F#m          G           D
When will I see you again?
D
F#m          G           D
When will I see you again?

[Verse]
D               F#m     G            D
I've already forgotten all of your names
D               F#m     G        D
And I cannot remember when you came
D                        F#m     G            D
Grab your things and get going; don't say goodbye
D                      F#m    G                          D
Turn your back on the ocean; go see what's out there to find

[Bridge]
D             G  D
It's time to let go
D           A   D
Goodbye and so long
D              G        D
All the best along the way
Bm                   A       D
Couldn't I keep you another day?

D     G     Bm
La da da da da da da
D           G        Bm      
When will I see you again? Well...
D           G        Bm 
I'll never see you again

[Outro]
D G D
D                          A   D
When will I see you again?
D G 
D           Bm             A   D
When will I see you again?

e|--10------10------12------10----10------10--------------|
B|---------------------------------------------5-5h7p5----|  
G|--11---11-11---11-12---11-11----11---11-11-----------7--|      
D|---------------------------------------------7----------|        
A|--------------------------------------------------------|
E|--------------------------------------------------------|



************************************

| h  Hammer-on
| p  Pull-off

************************************

            
            
Suggest correction
Creating personal tab
Creating personal tab
You can edit any tab online and save it as your Personal.

You can edit, replace or remove any tab part or add personal notes – all changes will be seen only by you.

Personal tabs can be accessed anytime from any device, even offline.
Learn more »
Give kudos to tab author, rate the tab!
1 2 3 4 5
comments
print report bad tab
guest
You may want to rate the tab now too:
select rating
Wanna post a correction for this tab? Suggest correction